ISO-10303-21;
HEADER;
FILE_DESCRIPTION (( 'STEP AP203' ),
    '1' );
FILE_NAME ('57105.step',
    '2021-11-12T10:34:56',
    ( '' ),
    ( '' ),
    'SwSTEP 2.0',
    'SolidWorks 2019',
    '' );
FILE_SCHEMA (( 'CONFIG_CONTROL_DESIGN' ));
ENDSEC;

DATA;
#1 = SECURITY_CLASSIFICATION ( '', '', #40 ) ;
#2 = DATE_TIME_ROLE ( 'creation_date' ) ;
#3 = EDGE_LOOP ( 'NONE', ( #66 ) ) ;
#4 = CC_DESIGN_SECURITY_CLASSIFICATION ( #1, ( #94 ) ) ;
#5 = DATE_AND_TIME ( #133, #107 ) ;
#6 = PERSON_AND_ORGANIZATION_ROLE ( 'design_supplier' ) ;
#7 = COORDINATED_UNIVERSAL_TIME_OFFSET ( 1, 0, .AHEAD. ) ;
#8 = ORIENTED_EDGE ( 'NONE', *, *, #202, .T. ) ;
#9 = AXIS2_PLACEMENT_3D ( 'NONE', #44, #46, #122 ) ;
#10 = PERSON_AND_ORGANIZATION ( #14, #81 ) ;
#11 = DIRECTION ( 'NONE',  ( -3.491481338843133355E-15, 1.224646799147353207E-16, -1.000000000000000000 ) ) ;
#12 = DIRECTION ( 'NONE',  ( 3.491481338843133355E-15, -1.224646799147353207E-16, 1.000000000000000000 ) ) ;
#13 = DIRECTION ( 'NONE',  ( 0.0000000000000000000, 1.000000000000000000, 0.0000000000000000000 ) ) ;
#14 = PERSON ( 'UNSPECIFIED', 'UNSPECIFIED', 'UNSPECIFIED', ('UNSPECIFIED'), ('UNSPECIFIED'), ('UNSPECIFIED') ) ;
#15 = DIRECTION ( 'NONE',  ( -3.491481338843133355E-15, 1.224646799147353207E-16, -1.000000000000000000 ) ) ;
#16 = ADVANCED_FACE ( 'NONE', ( #24 ), #87, .F. ) ;
#17 = DIRECTION ( 'NONE',  ( -3.491481338843133355E-15, 1.224646799147353207E-16, -1.000000000000000000 ) ) ;
#18 = COORDINATED_UNIVERSAL_TIME_OFFSET ( 1, 0, .AHEAD. ) ;
#19 = CC_DESIGN_APPROVAL ( #105, ( #180 ) ) ;
#20 = DIRECTION ( 'NONE',  ( 1.000000000000000000, 0.0000000000000000000, 0.0000000000000000000 ) ) ;
#21 = ADVANCED_FACE ( 'NONE', ( #117, #67 ), #139, .T. ) ;
#22 = CIRCLE ( 'NONE', #52, 3.500000000000000000 ) ;
#23 = APPROVAL_STATUS ( 'not_yet_approved' ) ;
#24 = FACE_OUTER_BOUND ( 'NONE', #102, .T. ) ;
#25 = COORDINATED_UNIVERSAL_TIME_OFFSET ( 1, 0, .AHEAD. ) ;
#26 = CC_DESIGN_PERSON_AND_ORGANIZATION_ASSIGNMENT ( #50, #186, ( #189 ) ) ;
#27 = APPROVAL_STATUS ( 'not_yet_approved' ) ;
#28 = CARTESIAN_POINT ( 'NONE',  ( -7.482705030319677999E-31, 2.624579619658250814E-32, -2.143131898507868297E-16 ) ) ;
#29 = CARTESIAN_POINT ( 'NONE',  ( 6.982962677686266711E-14, 3.499999999999997335, 20.00000000000000000 ) ) ;
#30 = DIRECTION ( 'NONE',  ( -3.491481338843133355E-15, 1.224646799147353207E-16, -1.000000000000000000 ) ) ;
#31 = APPROVAL_PERSON_ORGANIZATION ( #34, #105, #158 ) ;
#32 = DIRECTION ( 'NONE',  ( -3.491481338843133355E-15, 1.224646799147353207E-16, -1.000000000000000000 ) ) ;
#33 = APPLICATION_PROTOCOL_DEFINITION ( 'international standard', 'config_control_design', 1994, #112 ) ;
#34 = PERSON_AND_ORGANIZATION ( #14, #81 ) ;
#35 = EDGE_CURVE ( 'NONE', #203, #203, #175, .T. ) ;
#36 = AXIS2_PLACEMENT_3D ( 'NONE', #198, #17, #59 ) ;
#37 = DATE_AND_TIME ( #164, #111 ) ;
#38 = EDGE_LOOP ( 'NONE', ( #151 ) ) ;
#39 = PERSON_AND_ORGANIZATION ( #14, #81 ) ;
#40 = SECURITY_CLASSIFICATION_LEVEL ( 'unclassified' ) ;
#41 = EDGE_LOOP ( 'NONE', ( #8 ) ) ;
#42 = MANIFOLD_SOLID_BREP ( 'Corps-Déplacer/Copier1[1]', #132 ) ;
#43 = CALENDAR_DATE ( 2021, 12, 11 ) ;
#44 = CARTESIAN_POINT ( 'NONE',  ( 6.982962677686266711E-14, -2.449293598294706513E-15, 20.00000000000000000 ) ) ;
#45 = VERTEX_POINT ( 'NONE', #29 ) ;
#46 = DIRECTION ( 'NONE',  ( -3.491481338843133355E-15, 1.224646799147353207E-16, -1.000000000000000000 ) ) ;
#47 = DIRECTION ( 'NONE',  ( 0.0000000000000000000, 1.000000000000000000, 0.0000000000000000000 ) ) ;
#48 = DIRECTION ( 'NONE',  ( 0.0000000000000000000, 1.000000000000000000, 0.0000000000000000000 ) ) ;
#49 = AXIS2_PLACEMENT_3D ( 'NONE', #108, #90, #89 ) ;
#50 = PERSON_AND_ORGANIZATION ( #14, #81 ) ;
#51 = CIRCLE ( 'NONE', #9, 3.500000000000000000 ) ;
#52 = AXIS2_PLACEMENT_3D ( 'NONE', #124, #30, #91 ) ;
#53 = DIRECTION ( 'NONE',  ( 4.275831445896958607E-31, 1.000000000000000000, 1.224646799147353207E-16 ) ) ;
#54 = CARTESIAN_POINT ( 'NONE',  ( 0.0000000000000000000, 3.500000000000000000, 0.0000000000000000000 ) ) ;
#55 = AXIS2_PLACEMENT_3D ( 'NONE', #104, #156, #126 ) ;
#56 = EDGE_CURVE ( 'NONE', #45, #45, #140, .T. ) ;
#57 = ORIENTED_EDGE ( 'NONE', *, *, #121, .F. ) ;
#58 = PLANE ( 'NONE',  #113 ) ;
#59 = DIRECTION ( 'NONE',  ( 0.0000000000000000000, 1.000000000000000000, 0.0000000000000000000 ) ) ;
#60 = DIRECTION ( 'NONE',  ( 4.275831445896958607E-31, 1.000000000000000000, 1.224646799147353207E-16 ) ) ;
#61 = APPLICATION_PROTOCOL_DEFINITION ( 'international standard', 'config_control_design', 1994, #135 ) ;
#62 = CC_DESIGN_DATE_AND_TIME_ASSIGNMENT ( #79, #150, ( #1 ) ) ;
#63 = APPROVAL ( #27, 'UNSPECIFIED' ) ;
#64 = CALENDAR_DATE ( 2021, 12, 11 ) ;
#65 = APPROVAL_ROLE ( '' ) ;
#66 = ORIENTED_EDGE ( 'NONE', *, *, #56, .T. ) ;
#67 = FACE_OUTER_BOUND ( 'NONE', #85, .T. ) ;
#68 = CARTESIAN_POINT ( 'NONE',  ( 2.077431396611664157E-13, 3.499999999999989342, 59.50000000000000000 ) ) ;
#69 = FACE_BOUND ( 'NONE', #181, .T. ) ;
#70 = FACE_OUTER_BOUND ( 'NONE', #38, .T. ) ;
#71 = CARTESIAN_POINT ( 'NONE',  ( 6.982962677686266711E-14, 2.624579619658247529E-32, 20.00000000000000000 ) ) ;
#72 = CARTESIAN_POINT ( 'NONE',  ( 6.982962677686266711E-14, 3.499999999999997335, 20.00000000000000000 ) ) ;
#73 = CARTESIAN_POINT ( 'NONE',  ( 2.094888803305880013E-13, -7.347880794884118356E-15, 60.00000000000000000 ) ) ;
#74 = CC_DESIGN_DATE_AND_TIME_ASSIGNMENT ( #5, #2, ( #180 ) ) ;
#75 = APPROVAL_PERSON_ORGANIZATION ( #10, #129, #65 ) ;
#76 = PRODUCT_DEFINITION_SHAPE ( 'NONE', 'NONE',  #180 ) ;
#77 = AXIS2_PLACEMENT_3D ( 'NONE', #71, #12, #185 ) ;
#78 = ORIENTED_EDGE ( 'NONE', *, *, #56, .F. ) ;
#79 = DATE_AND_TIME ( #193, #168 ) ;
#80 = EDGE_LOOP ( 'NONE', ( #167 ) ) ;
#81 = ORGANIZATION ( 'UNSPECIFIED', 'UNSPECIFIED', '' ) ;
#82 = CLOSED_SHELL ( 'NONE', ( #166, #83, #160 ) ) ;
#83 = ADVANCED_FACE ( 'NONE', ( #110, #70 ), #171, .T. ) ;
#84 = PERSON_AND_ORGANIZATION ( #14, #81 ) ;
#85 = EDGE_LOOP ( 'NONE', ( #163 ) ) ;
#86 = DATE_AND_TIME ( #64, #183 ) ;
#87 = PLANE ( 'NONE',  #199 ) ;
#88 = AXIS2_PLACEMENT_3D ( 'NONE', #159, #188, #20 ) ;
#89 = DIRECTION ( 'NONE',  ( 4.275831445896958607E-31, 1.000000000000000000, 1.224646799147353207E-16 ) ) ;
#90 = DIRECTION ( 'NONE',  ( -3.491481338843133355E-15, 1.224646799147353207E-16, -1.000000000000000000 ) ) ;
#91 = DIRECTION ( 'NONE',  ( 4.275831445896958607E-31, 1.000000000000000000, 1.224646799147353207E-16 ) ) ;
#92 = FACE_OUTER_BOUND ( 'NONE', #137, .T. ) ;
#93 = APPROVAL_STATUS ( 'not_yet_approved' ) ;
#94 = PRODUCT_DEFINITION_FORMATION_WITH_SPECIFIED_SOURCE ( 'ANY', '', #189, .NOT_KNOWN. ) ;
#95 = AXIS2_PLACEMENT_3D ( 'NONE', #172, #32, #47 ) ;
#96 = EDGE_LOOP ( 'NONE', ( #134 ) ) ;
#97 = CC_DESIGN_PERSON_AND_ORGANIZATION_ASSIGNMENT ( #98, #6, ( #94 ) ) ;
#98 = PERSON_AND_ORGANIZATION ( #14, #81 ) ;
#99 = PERSON_AND_ORGANIZATION ( #14, #81 ) ;
#100 = ADVANCED_BREP_SHAPE_REPRESENTATION ( '57105', ( #42, #178, #88 ), #127 ) ;
#101 = PERSON_AND_ORGANIZATION_ROLE ( 'classification_officer' ) ;
#102 = EDGE_LOOP ( 'NONE', ( #57 ) ) ;
#103 = DATE_AND_TIME ( #43, #197 ) ;
#104 = CARTESIAN_POINT ( 'NONE',  ( 6.982962677686266711E-14, 2.624579619658247529E-32, 20.00000000000000000 ) ) ;
#105 = APPROVAL ( #93, 'UNSPECIFIED' ) ;
#106 = VERTEX_POINT ( 'NONE', #149 ) ;
#107 = LOCAL_TIME ( 11, 34, 56.00000000000000000, #25 ) ;
#108 = CARTESIAN_POINT ( 'NONE',  ( 0.0000000000000000000, 0.0000000000000000000, 0.0000000000000000000 ) ) ;
#109 =( LENGTH_UNIT ( ) NAMED_UNIT ( * ) SI_UNIT ( .MILLI., .METRE. ) );
#110 = FACE_OUTER_BOUND ( 'NONE', #3, .T. ) ;
#111 = LOCAL_TIME ( 11, 34, 56.00000000000000000, #131 ) ;
#112 = APPLICATION_CONTEXT ( 'configuration controlled 3d designs of mechanical parts and assemblies' ) ;
#113 = AXIS2_PLACEMENT_3D ( 'NONE', #28, #15, #60 ) ;
#114 = ORIENTED_EDGE ( 'NONE', *, *, #154, .T. ) ;
#115 = PRODUCT_RELATED_PRODUCT_CATEGORY ( 'detail', '', ( #189 ) ) ;
#116 = SHAPE_DEFINITION_REPRESENTATION ( #76, #100 ) ;
#117 = FACE_OUTER_BOUND ( 'NONE', #80, .T. ) ;
#118 = APPROVAL_DATE_TIME ( #86, #105 ) ;
#119 = CIRCLE ( 'NONE', #36, 2.999999999999999556 ) ;
#120 = EDGE_LOOP ( 'NONE', ( #114 ) ) ;
#121 = EDGE_CURVE ( 'NONE', #106, #106, #119, .T. ) ;
#122 = DIRECTION ( 'NONE',  ( 0.0000000000000000000, 1.000000000000000000, 0.0000000000000000000 ) ) ;
#123 = VERTEX_POINT ( 'NONE', #54 ) ;
#124 = CARTESIAN_POINT ( 'NONE',  ( -1.496541006063935600E-30, 5.249159239316501627E-32, -4.286263797015736595E-16 ) ) ;
#125 = CC_DESIGN_PERSON_AND_ORGANIZATION_ASSIGNMENT ( #39, #162, ( #180 ) ) ;
#126 = DIRECTION ( 'NONE',  ( -4.275831445896958607E-31, -1.000000000000000000, -1.224646799147353207E-16 ) ) ;
#127 =( GEOMETRIC_REPRESENTATION_CONTEXT ( 3 ) GLOBAL_UNCERTAINTY_ASSIGNED_CONTEXT ( ( #130 ) ) GLOBAL_UNIT_ASSIGNED_CONTEXT ( ( #109, #173, #161 ) ) REPRESENTATION_CONTEXT ( 'NONE', 'WORKASPACE' ) );
#128 = AXIS2_PLACEMENT_3D ( 'NONE', #155, #142, #13 ) ;
#129 = APPROVAL ( #23, 'UNSPECIFIED' ) ;
#130 = UNCERTAINTY_MEASURE_WITH_UNIT (LENGTH_MEASURE( 1.000000000000000082E-05 ), #109, 'distance_accuracy_value', 'NONE');
#131 = COORDINATED_UNIVERSAL_TIME_OFFSET ( 1, 0, .AHEAD. ) ;
#132 = CLOSED_SHELL ( 'NONE', ( #176, #21, #192, #16 ) ) ;
#133 = CALENDAR_DATE ( 2021, 12, 11 ) ;
#134 = ORIENTED_EDGE ( 'NONE', *, *, #35, .F. ) ;
#135 = APPLICATION_CONTEXT ( 'configuration controlled 3d designs of mechanical parts and assemblies' ) ;
#136 = CC_DESIGN_APPROVAL ( #63, ( #94 ) ) ;
#137 = EDGE_LOOP ( 'NONE', ( #78 ) ) ;
#138 = PLANE ( 'NONE',  #55 ) ;
#139 = CYLINDRICAL_SURFACE ( 'NONE', #49, 3.499999999999998224 ) ;
#140 = CIRCLE ( 'NONE', #128, 3.500000000000000000 ) ;
#141 = CARTESIAN_POINT ( 'NONE',  ( 0.0000000000000000000, 0.0000000000000000000, 0.0000000000000000000 ) ) ;
#142 = DIRECTION ( 'NONE',  ( -3.491481338843133355E-15, 1.224646799147353207E-16, -1.000000000000000000 ) ) ;
#143 = AXIS2_PLACEMENT_3D ( 'NONE', #141, #174, #184 ) ;
#144 = COORDINATED_UNIVERSAL_TIME_OFFSET ( 1, 0, .AHEAD. ) ;
#145 = APPROVAL_DATE_TIME ( #103, #63 ) ;
#146 = CARTESIAN_POINT ( 'NONE',  ( 2.094888803305880013E-13, 2.249639673992774917E-32, 60.00000000000000000 ) ) ;
#147 = APPROVAL_ROLE ( '' ) ;
#148 = PERSON_AND_ORGANIZATION_ROLE ( 'creator' ) ;
#149 = CARTESIAN_POINT ( 'NONE',  ( 2.094888803305880013E-13, 2.999999999999992450, 60.00000000000000000 ) ) ;
#150 = DATE_TIME_ROLE ( 'classification_date' ) ;
#151 = ORIENTED_EDGE ( 'NONE', *, *, #154, .F. ) ;
#152 = CONICAL_SURFACE ( 'NONE', #194, 2.999999999999999556, 0.7853981633974447263 ) ;
#153 = PLANE ( 'NONE',  #77 ) ;
#154 = EDGE_CURVE ( 'NONE', #123, #123, #22, .T. ) ;
#155 = CARTESIAN_POINT ( 'NONE',  ( 6.982962677686266711E-14, -2.449293598294706513E-15, 20.00000000000000000 ) ) ;
#156 = DIRECTION ( 'NONE',  ( 3.491481338843133355E-15, -1.224646799147353207E-16, 1.000000000000000000 ) ) ;
#157 = FACE_OUTER_BOUND ( 'NONE', #41, .T. ) ;
#158 = APPROVAL_ROLE ( '' ) ;
#159 = CARTESIAN_POINT ( 'NONE',  ( 0.0000000000000000000, 0.0000000000000000000, 0.0000000000000000000 ) ) ;
#160 = ADVANCED_FACE ( 'NONE', ( #92 ), #138, .T. ) ;
#161 =( NAMED_UNIT ( * ) SI_UNIT ( $, .STERADIAN. ) SOLID_ANGLE_UNIT ( ) );
#162 = PERSON_AND_ORGANIZATION_ROLE ( 'creator' ) ;
#163 = ORIENTED_EDGE ( 'NONE', *, *, #202, .F. ) ;
#164 = CALENDAR_DATE ( 2021, 12, 11 ) ;
#165 = APPROVAL_DATE_TIME ( #37, #129 ) ;
#166 = ADVANCED_FACE ( 'NONE', ( #182 ), #58, .T. ) ;
#167 = ORIENTED_EDGE ( 'NONE', *, *, #35, .T. ) ;
#168 = LOCAL_TIME ( 11, 34, 56.00000000000000000, #7 ) ;
#169 = VERTEX_POINT ( 'NONE', #72 ) ;
#170 = CC_DESIGN_PERSON_AND_ORGANIZATION_ASSIGNMENT ( #99, #101, ( #1 ) ) ;
#171 = CYLINDRICAL_SURFACE ( 'NONE', #143, 3.500000000000000000 ) ;
#172 = CARTESIAN_POINT ( 'NONE',  ( 2.077431396611664157E-13, -7.286648454926750781E-15, 59.50000000000000000 ) ) ;
#173 =( NAMED_UNIT ( * ) PLANE_ANGLE_UNIT ( ) SI_UNIT ( $, .RADIAN. ) );
#174 = DIRECTION ( 'NONE',  ( -3.491481338843133355E-15, 1.224646799147353207E-16, -1.000000000000000000 ) ) ;
#175 = CIRCLE ( 'NONE', #95, 3.499999999999996447 ) ;
#176 = ADVANCED_FACE ( 'NONE', ( #157 ), #153, .F. ) ;
#177 = DESIGN_CONTEXT ( 'detailed design', #135, 'design' ) ;
#178 = MANIFOLD_SOLID_BREP ( 'Corps-Déplacer/Copier1[2]', #82 ) ;
#179 = PERSON_AND_ORGANIZATION ( #14, #81 ) ;
#180 = PRODUCT_DEFINITION ( 'UNKNOWN', '', #94, #177 ) ;
#181 = EDGE_LOOP ( 'NONE', ( #195 ) ) ;
#182 = FACE_OUTER_BOUND ( 'NONE', #120, .T. ) ;
#183 = LOCAL_TIME ( 11, 34, 56.00000000000000000, #18 ) ;
#184 = DIRECTION ( 'NONE',  ( 4.275831445896958607E-31, 1.000000000000000000, 1.224646799147353207E-16 ) ) ;
#185 = DIRECTION ( 'NONE',  ( -4.275831445896958607E-31, -1.000000000000000000, -1.224646799147353207E-16 ) ) ;
#186 = PERSON_AND_ORGANIZATION_ROLE ( 'design_owner' ) ;
#187 = APPROVAL_PERSON_ORGANIZATION ( #84, #63, #147 ) ;
#188 = DIRECTION ( 'NONE',  ( 0.0000000000000000000, 0.0000000000000000000, 1.000000000000000000 ) ) ;
#189 = PRODUCT ( '57105', '57105', '', ( #201 ) ) ;
#190 = CC_DESIGN_PERSON_AND_ORGANIZATION_ASSIGNMENT ( #179, #148, ( #94 ) ) ;
#191 = CC_DESIGN_APPROVAL ( #129, ( #1 ) ) ;
#192 = ADVANCED_FACE ( 'NONE', ( #200, #69 ), #152, .T. ) ;
#193 = CALENDAR_DATE ( 2021, 12, 11 ) ;
#194 = AXIS2_PLACEMENT_3D ( 'NONE', #73, #196, #48 ) ;
#195 = ORIENTED_EDGE ( 'NONE', *, *, #121, .T. ) ;
#196 = DIRECTION ( 'NONE',  ( -3.491481338843133355E-15, 1.224646799147353207E-16, -1.000000000000000000 ) ) ;
#197 = LOCAL_TIME ( 11, 34, 56.00000000000000000, #144 ) ;
#198 = CARTESIAN_POINT ( 'NONE',  ( 2.094888803305880013E-13, -7.347880794884118356E-15, 60.00000000000000000 ) ) ;
#199 = AXIS2_PLACEMENT_3D ( 'NONE', #146, #11, #53 ) ;
#200 = FACE_OUTER_BOUND ( 'NONE', #96, .T. ) ;
#201 = MECHANICAL_CONTEXT ( 'NONE', #112, 'mechanical' ) ;
#202 = EDGE_CURVE ( 'NONE', #169, #169, #51, .T. ) ;
#203 = VERTEX_POINT ( 'NONE', #68 ) ;
ENDSEC;
END-ISO-10303-21;
