ISO-10303-21;
HEADER;
FILE_DESCRIPTION (( 'STEP AP203' ),
    '1' );
FILE_NAME ('57104.step',
    '2021-11-12T10:34:55',
    ( '' ),
    ( '' ),
    'SwSTEP 2.0',
    'SolidWorks 2019',
    '' );
FILE_SCHEMA (( 'CONFIG_CONTROL_DESIGN' ));
ENDSEC;

DATA;
#1 = PERSON_AND_ORGANIZATION ( #185, #49 ) ;
#2 = CLOSED_SHELL ( 'NONE', ( #38, #195, #203, #33 ) ) ;
#3 = PERSON_AND_ORGANIZATION ( #185, #49 ) ;
#4 = DATE_TIME_ROLE ( 'classification_date' ) ;
#5 = ORIENTED_EDGE ( 'NONE', *, *, #157, .T. ) ;
#6 = EDGE_LOOP ( 'NONE', ( #21 ) ) ;
#7 = FACE_OUTER_BOUND ( 'NONE', #85, .T. ) ;
#8 = CC_DESIGN_PERSON_AND_ORGANIZATION_ASSIGNMENT ( #1, #9, ( #130 ) ) ;
#9 = PERSON_AND_ORGANIZATION_ROLE ( 'creator' ) ;
#10 = DIRECTION ( 'NONE',  ( -3.491481338843133355E-15, 1.224646799147353207E-16, -1.000000000000000000 ) ) ;
#11 = DIRECTION ( 'NONE',  ( -3.491481338843133355E-15, 1.224646799147353207E-16, -1.000000000000000000 ) ) ;
#12 = DIRECTION ( 'NONE',  ( 0.0000000000000000000, 1.000000000000000000, 0.0000000000000000000 ) ) ;
#13 = CARTESIAN_POINT ( 'NONE',  ( 1.745740669421566425E-13, 2.499999999999995115, 49.99999999999999289 ) ) ;
#14 =( LENGTH_UNIT ( ) NAMED_UNIT ( * ) SI_UNIT ( .MILLI., .METRE. ) );
#15 = PRODUCT_DEFINITION ( 'UNKNOWN', '', #130, #31 ) ;
#16 = DATE_AND_TIME ( #143, #192 ) ;
#17 = PERSON_AND_ORGANIZATION_ROLE ( 'design_supplier' ) ;
#18 = AXIS2_PLACEMENT_3D ( 'NONE', #100, #69, #42 ) ;
#19 = DIRECTION ( 'NONE',  ( 4.275831445896959482E-31, 1.000000000000000000, 1.224646799147353207E-16 ) ) ;
#20 = COORDINATED_UNIVERSAL_TIME_OFFSET ( 1, 0, .AHEAD. ) ;
#21 = ORIENTED_EDGE ( 'NONE', *, *, #105, .T. ) ;
#22 = DIRECTION ( 'NONE',  ( 0.0000000000000000000, 1.000000000000000000, 0.0000000000000000000 ) ) ;
#23 = AXIS2_PLACEMENT_3D ( 'NONE', #101, #10, #88 ) ;
#24 = DIRECTION ( 'NONE',  ( -3.491481338843133355E-15, 1.224646799147353207E-16, -1.000000000000000000 ) ) ;
#25 = LOCAL_TIME ( 11, 34, 55.00000000000000000, #120 ) ;
#26 = PLANE ( 'NONE',  #123 ) ;
#27 = APPROVAL_STATUS ( 'not_yet_approved' ) ;
#28 = CC_DESIGN_DATE_AND_TIME_ASSIGNMENT ( #107, #4, ( #138 ) ) ;
#29 = CARTESIAN_POINT ( 'NONE',  ( 1.745740669421566678E-13, 1.874699728327314073E-32, 50.00000000000000000 ) ) ;
#30 =( NAMED_UNIT ( * ) PLANE_ANGLE_UNIT ( ) SI_UNIT ( $, .RADIAN. ) );
#31 = DESIGN_CONTEXT ( 'detailed design', #32, 'design' ) ;
#32 = APPLICATION_CONTEXT ( 'configuration controlled 3d designs of mechanical parts and assemblies' ) ;
#33 = ADVANCED_FACE ( 'NONE', ( #164 ), #131, .F. ) ;
#34 = MANIFOLD_SOLID_BREP ( 'Corps-Déplacer/Copier1[1]', #2 ) ;
#35 = DATE_AND_TIME ( #127, #73 ) ;
#36 = LOCAL_TIME ( 11, 34, 55.00000000000000000, #44 ) ;
#37 = MANIFOLD_SOLID_BREP ( 'Corps-Déplacer/Copier1[2]', #67 ) ;
#38 = ADVANCED_FACE ( 'NONE', ( #193 ), #26, .F. ) ;
#39 = COORDINATED_UNIVERSAL_TIME_OFFSET ( 1, 0, .AHEAD. ) ;
#40 = AXIS2_PLACEMENT_3D ( 'NONE', #162, #161, #22 ) ;
#41 = DIRECTION ( 'NONE',  ( -3.491481338843133355E-15, 1.224646799147353207E-16, -1.000000000000000000 ) ) ;
#42 = DIRECTION ( 'NONE',  ( 4.275831445896959482E-31, 1.000000000000000000, 1.224646799147353207E-16 ) ) ;
#43 = FACE_OUTER_BOUND ( 'NONE', #201, .T. ) ;
#44 = COORDINATED_UNIVERSAL_TIME_OFFSET ( 1, 0, .AHEAD. ) ;
#45 = FACE_OUTER_BOUND ( 'NONE', #110, .T. ) ;
#46 = APPROVAL_DATE_TIME ( #154, #92 ) ;
#47 = PLANE ( 'NONE',  #51 ) ;
#48 = CALENDAR_DATE ( 2021, 12, 11 ) ;
#49 = ORGANIZATION ( 'UNSPECIFIED', 'UNSPECIFIED', '' ) ;
#50 = CC_DESIGN_PERSON_AND_ORGANIZATION_ASSIGNMENT ( #53, #17, ( #130 ) ) ;
#51 = AXIS2_PLACEMENT_3D ( 'NONE', #54, #116, #175 ) ;
#52 = ADVANCED_FACE ( 'NONE', ( #77, #136 ), #147, .T. ) ;
#53 = PERSON_AND_ORGANIZATION ( #185, #49 ) ;
#54 = CARTESIAN_POINT ( 'NONE',  ( -6.413747168845438786E-31, 2.249639673992786412E-32, -1.836970198721029934E-16 ) ) ;
#55 = APPROVAL_ROLE ( '' ) ;
#56 = CC_DESIGN_APPROVAL ( #92, ( #15 ) ) ;
#57 = EDGE_LOOP ( 'NONE', ( #62 ) ) ;
#58 = CARTESIAN_POINT ( 'NONE',  ( 1.745740669421566425E-13, -6.123233995736765296E-15, 49.99999999999999289 ) ) ;
#59 = VERTEX_POINT ( 'NONE', #200 ) ;
#60 = DIRECTION ( 'NONE',  ( 0.0000000000000000000, 1.000000000000000000, 0.0000000000000000000 ) ) ;
#61 = DIRECTION ( 'NONE',  ( 0.0000000000000000000, 0.0000000000000000000, 1.000000000000000000 ) ) ;
#62 = ORIENTED_EDGE ( 'NONE', *, *, #99, .F. ) ;
#63 = CARTESIAN_POINT ( 'NONE',  ( 6.284666409917640040E-14, 2.999999999999997780, 18.00000000000000000 ) ) ;
#64 = CALENDAR_DATE ( 2021, 12, 11 ) ;
#65 = APPROVAL_PERSON_ORGANIZATION ( #202, #92, #117 ) ;
#66 = CIRCLE ( 'NONE', #18, 3.000000000000000000 ) ;
#67 = CLOSED_SHELL ( 'NONE', ( #121, #52, #76 ) ) ;
#68 = APPROVAL_ROLE ( '' ) ;
#69 = DIRECTION ( 'NONE',  ( -3.491481338843133355E-15, 1.224646799147353207E-16, -1.000000000000000000 ) ) ;
#70 = ORIENTED_EDGE ( 'NONE', *, *, #87, .F. ) ;
#71 = FACE_OUTER_BOUND ( 'NONE', #144, .T. ) ;
#72 = COORDINATED_UNIVERSAL_TIME_OFFSET ( 1, 0, .AHEAD. ) ;
#73 = LOCAL_TIME ( 11, 34, 55.00000000000000000, #20 ) ;
#74 = DIRECTION ( 'NONE',  ( 3.491481338843133355E-15, -1.224646799147353207E-16, 1.000000000000000000 ) ) ;
#75 =( NAMED_UNIT ( * ) SI_UNIT ( $, .STERADIAN. ) SOLID_ANGLE_UNIT ( ) );
#76 = ADVANCED_FACE ( 'NONE', ( #43 ), #196, .T. ) ;
#77 = FACE_OUTER_BOUND ( 'NONE', #6, .T. ) ;
#78 = CARTESIAN_POINT ( 'NONE',  ( 1.728283262727351074E-13, -6.062001655779398511E-15, 49.50000000000000000 ) ) ;
#79 = CIRCLE ( 'NONE', #135, 3.000000000000000000 ) ;
#80 = APPROVAL_PERSON_ORGANIZATION ( #3, #170, #55 ) ;
#81 = AXIS2_PLACEMENT_3D ( 'NONE', #58, #146, #60 ) ;
#82 = APPROVAL_STATUS ( 'not_yet_approved' ) ;
#83 = DIRECTION ( 'NONE',  ( -4.275831445896958607E-31, -1.000000000000000000, -1.224646799147353207E-16 ) ) ;
#84 = PRODUCT ( '57104', '57104', '', ( #89 ) ) ;
#85 = EDGE_LOOP ( 'NONE', ( #177 ) ) ;
#86 = ORIENTED_EDGE ( 'NONE', *, *, #157, .F. ) ;
#87 = EDGE_CURVE ( 'NONE', #151, #151, #118, .T. ) ;
#88 = DIRECTION ( 'NONE',  ( 0.0000000000000000000, 1.000000000000000000, 0.0000000000000000000 ) ) ;
#89 = MECHANICAL_CONTEXT ( 'NONE', #156, 'mechanical' ) ;
#90 = APPLICATION_PROTOCOL_DEFINITION ( 'international standard', 'config_control_design', 1994, #32 ) ;
#91 = DATE_AND_TIME ( #48, #25 ) ;
#92 = APPROVAL ( #27, 'UNSPECIFIED' ) ;
#93 = CC_DESIGN_APPROVAL ( #170, ( #138 ) ) ;
#94 = PERSON_AND_ORGANIZATION_ROLE ( 'classification_officer' ) ;
#95 = CIRCLE ( 'NONE', #40, 3.000000000000000000 ) ;
#96 = ORIENTED_EDGE ( 'NONE', *, *, #125, .F. ) ;
#97 = EDGE_LOOP ( 'NONE', ( #126 ) ) ;
#98 = DIRECTION ( 'NONE',  ( 0.0000000000000000000, 1.000000000000000000, 0.0000000000000000000 ) ) ;
#99 = EDGE_CURVE ( 'NONE', #59, #59, #66, .T. ) ;
#100 = CARTESIAN_POINT ( 'NONE',  ( -1.282749433769087757E-30, 4.499279347985572824E-32, -3.673940397442059868E-16 ) ) ;
#101 = CARTESIAN_POINT ( 'NONE',  ( 1.745740669421566425E-13, -6.123233995736765296E-15, 49.99999999999999289 ) ) ;
#102 = PERSON_AND_ORGANIZATION ( #185, #49 ) ;
#103 = CYLINDRICAL_SURFACE ( 'NONE', #139, 2.999999999999997335 ) ;
#104 = PERSON_AND_ORGANIZATION ( #185, #49 ) ;
#105 = EDGE_CURVE ( 'NONE', #155, #155, #79, .T. ) ;
#106 = AXIS2_PLACEMENT_3D ( 'NONE', #29, #41, #166 ) ;
#107 = DATE_AND_TIME ( #176, #169 ) ;
#108 = PRODUCT_RELATED_PRODUCT_CATEGORY ( 'detail', '', ( #84 ) ) ;
#109 = PERSON_AND_ORGANIZATION ( #185, #49 ) ;
#110 = EDGE_LOOP ( 'NONE', ( #96 ) ) ;
#111 = ORIENTED_EDGE ( 'NONE', *, *, #87, .T. ) ;
#112 = FACE_OUTER_BOUND ( 'NONE', #97, .T. ) ;
#113 = EDGE_LOOP ( 'NONE', ( #5 ) ) ;
#114 = DIRECTION ( 'NONE',  ( -3.491481338843133355E-15, 1.224646799147353207E-16, -1.000000000000000000 ) ) ;
#115 = PERSON_AND_ORGANIZATION_ROLE ( 'design_owner' ) ;
#116 = DIRECTION ( 'NONE',  ( -3.491481338843133355E-15, 1.224646799147353207E-16, -1.000000000000000000 ) ) ;
#117 = APPROVAL_ROLE ( '' ) ;
#118 = CIRCLE ( 'NONE', #81, 2.500000000000001332 ) ;
#119 = CARTESIAN_POINT ( 'NONE',  ( 6.284666409917640040E-14, 2.249639673992783127E-32, 18.00000000000000000 ) ) ;
#120 = COORDINATED_UNIVERSAL_TIME_OFFSET ( 1, 0, .AHEAD. ) ;
#121 = ADVANCED_FACE ( 'NONE', ( #112 ), #47, .T. ) ;
#122 = CC_DESIGN_APPROVAL ( #140, ( #130 ) ) ;
#123 = AXIS2_PLACEMENT_3D ( 'NONE', #133, #160, #174 ) ;
#124 = APPROVAL_STATUS ( 'not_yet_approved' ) ;
#125 = EDGE_CURVE ( 'NONE', #197, #197, #159, .T. ) ;
#126 = ORIENTED_EDGE ( 'NONE', *, *, #99, .T. ) ;
#127 = CALENDAR_DATE ( 2021, 12, 11 ) ;
#128 = CARTESIAN_POINT ( 'NONE',  ( 0.0000000000000000000, 0.0000000000000000000, 0.0000000000000000000 ) ) ;
#129 = SECURITY_CLASSIFICATION_LEVEL ( 'unclassified' ) ;
#130 = PRODUCT_DEFINITION_FORMATION_WITH_SPECIFIED_SOURCE ( 'ANY', '', #84, .NOT_KNOWN. ) ;
#131 = PLANE ( 'NONE',  #106 ) ;
#132 = APPLICATION_PROTOCOL_DEFINITION ( 'international standard', 'config_control_design', 1994, #156 ) ;
#133 = CARTESIAN_POINT ( 'NONE',  ( 6.284666409917640040E-14, 2.249639673992783127E-32, 18.00000000000000000 ) ) ;
#134 = CARTESIAN_POINT ( 'NONE',  ( 1.728283262727351074E-13, 2.999999999999988898, 49.50000000000000000 ) ) ;
#135 = AXIS2_PLACEMENT_3D ( 'NONE', #153, #188, #12 ) ;
#136 = FACE_OUTER_BOUND ( 'NONE', #57, .T. ) ;
#137 = CC_DESIGN_PERSON_AND_ORGANIZATION_ASSIGNMENT ( #145, #94, ( #138 ) ) ;
#138 = SECURITY_CLASSIFICATION ( '', '', #129 ) ;
#139 = AXIS2_PLACEMENT_3D ( 'NONE', #128, #24, #179 ) ;
#140 = APPROVAL ( #82, 'UNSPECIFIED' ) ;
#141 = AXIS2_PLACEMENT_3D ( 'NONE', #198, #114, #19 ) ;
#142 = AXIS2_PLACEMENT_3D ( 'NONE', #167, #61, #163 ) ;
#143 = CALENDAR_DATE ( 2021, 12, 11 ) ;
#144 = EDGE_LOOP ( 'NONE', ( #86 ) ) ;
#145 = PERSON_AND_ORGANIZATION ( #185, #49 ) ;
#146 = DIRECTION ( 'NONE',  ( -3.491481338843133355E-15, 1.224646799147353207E-16, -1.000000000000000000 ) ) ;
#147 = CYLINDRICAL_SURFACE ( 'NONE', #141, 3.000000000000000000 ) ;
#148 =( GEOMETRIC_REPRESENTATION_CONTEXT ( 3 ) GLOBAL_UNCERTAINTY_ASSIGNED_CONTEXT ( ( #183 ) ) GLOBAL_UNIT_ASSIGNED_CONTEXT ( ( #14, #30, #75 ) ) REPRESENTATION_CONTEXT ( 'NONE', 'WORKASPACE' ) );
#149 = FACE_BOUND ( 'NONE', #186, .T. ) ;
#150 = CC_DESIGN_SECURITY_CLASSIFICATION ( #138, ( #130 ) ) ;
#151 = VERTEX_POINT ( 'NONE', #13 ) ;
#152 = CARTESIAN_POINT ( 'NONE',  ( 6.284666409917640040E-14, 2.999999999999997780, 18.00000000000000000 ) ) ;
#153 = CARTESIAN_POINT ( 'NONE',  ( 6.284666409917640040E-14, -2.204364238465235428E-15, 18.00000000000000000 ) ) ;
#154 = DATE_AND_TIME ( #64, #36 ) ;
#155 = VERTEX_POINT ( 'NONE', #152 ) ;
#156 = APPLICATION_CONTEXT ( 'configuration controlled 3d designs of mechanical parts and assemblies' ) ;
#157 = EDGE_CURVE ( 'NONE', #180, #180, #95, .T. ) ;
#158 = APPROVAL_DATE_TIME ( #35, #140 ) ;
#159 = CIRCLE ( 'NONE', #184, 2.999999999999994671 ) ;
#160 = DIRECTION ( 'NONE',  ( 3.491481338843133355E-15, -1.224646799147353207E-16, 1.000000000000000000 ) ) ;
#161 = DIRECTION ( 'NONE',  ( -3.491481338843133355E-15, 1.224646799147353207E-16, -1.000000000000000000 ) ) ;
#162 = CARTESIAN_POINT ( 'NONE',  ( 6.284666409917640040E-14, -2.204364238465235428E-15, 18.00000000000000000 ) ) ;
#163 = DIRECTION ( 'NONE',  ( 1.000000000000000000, 0.0000000000000000000, 0.0000000000000000000 ) ) ;
#164 = FACE_OUTER_BOUND ( 'NONE', #191, .T. ) ;
#165 = CC_DESIGN_PERSON_AND_ORGANIZATION_ASSIGNMENT ( #104, #115, ( #84 ) ) ;
#166 = DIRECTION ( 'NONE',  ( 4.275831445896958607E-31, 1.000000000000000000, 1.224646799147353207E-16 ) ) ;
#167 = CARTESIAN_POINT ( 'NONE',  ( 0.0000000000000000000, 0.0000000000000000000, 0.0000000000000000000 ) ) ;
#168 = CONICAL_SURFACE ( 'NONE', #23, 2.500000000000001332, 0.7853981633974482790 ) ;
#169 = LOCAL_TIME ( 11, 34, 55.00000000000000000, #72 ) ;
#170 = APPROVAL ( #124, 'UNSPECIFIED' ) ;
#171 = CC_DESIGN_PERSON_AND_ORGANIZATION_ASSIGNMENT ( #102, #182, ( #15 ) ) ;
#172 = APPROVAL_PERSON_ORGANIZATION ( #109, #140, #68 ) ;
#173 = DATE_TIME_ROLE ( 'creation_date' ) ;
#174 = DIRECTION ( 'NONE',  ( -4.275831445896958607E-31, -1.000000000000000000, -1.224646799147353207E-16 ) ) ;
#175 = DIRECTION ( 'NONE',  ( 4.275831445896958607E-31, 1.000000000000000000, 1.224646799147353207E-16 ) ) ;
#176 = CALENDAR_DATE ( 2021, 12, 11 ) ;
#177 = ORIENTED_EDGE ( 'NONE', *, *, #125, .T. ) ;
#178 = CC_DESIGN_DATE_AND_TIME_ASSIGNMENT ( #91, #173, ( #15 ) ) ;
#179 = DIRECTION ( 'NONE',  ( 4.275831445896958607E-31, 1.000000000000000000, 1.224646799147353207E-16 ) ) ;
#180 = VERTEX_POINT ( 'NONE', #63 ) ;
#181 = ORIENTED_EDGE ( 'NONE', *, *, #105, .F. ) ;
#182 = PERSON_AND_ORGANIZATION_ROLE ( 'creator' ) ;
#183 = UNCERTAINTY_MEASURE_WITH_UNIT (LENGTH_MEASURE( 1.000000000000000082E-05 ), #14, 'distance_accuracy_value', 'NONE');
#184 = AXIS2_PLACEMENT_3D ( 'NONE', #78, #11, #98 ) ;
#185 = PERSON ( 'UNSPECIFIED', 'UNSPECIFIED', 'UNSPECIFIED', ('UNSPECIFIED'), ('UNSPECIFIED'), ('UNSPECIFIED') ) ;
#186 = EDGE_LOOP ( 'NONE', ( #111 ) ) ;
#187 = AXIS2_PLACEMENT_3D ( 'NONE', #119, #74, #83 ) ;
#188 = DIRECTION ( 'NONE',  ( -3.491481338843133355E-15, 1.224646799147353207E-16, -1.000000000000000000 ) ) ;
#189 = PRODUCT_DEFINITION_SHAPE ( 'NONE', 'NONE',  #15 ) ;
#190 = APPROVAL_DATE_TIME ( #16, #170 ) ;
#191 = EDGE_LOOP ( 'NONE', ( #70 ) ) ;
#192 = LOCAL_TIME ( 11, 34, 55.00000000000000000, #39 ) ;
#193 = FACE_OUTER_BOUND ( 'NONE', #113, .T. ) ;
#194 = SHAPE_DEFINITION_REPRESENTATION ( #189, #199 ) ;
#195 = ADVANCED_FACE ( 'NONE', ( #7, #71 ), #103, .T. ) ;
#196 = PLANE ( 'NONE',  #187 ) ;
#197 = VERTEX_POINT ( 'NONE', #134 ) ;
#198 = CARTESIAN_POINT ( 'NONE',  ( 0.0000000000000000000, 0.0000000000000000000, 0.0000000000000000000 ) ) ;
#199 = ADVANCED_BREP_SHAPE_REPRESENTATION ( '57104', ( #34, #37, #142 ), #148 ) ;
#200 = CARTESIAN_POINT ( 'NONE',  ( 0.0000000000000000000, 3.000000000000000000, 0.0000000000000000000 ) ) ;
#201 = EDGE_LOOP ( 'NONE', ( #181 ) ) ;
#202 = PERSON_AND_ORGANIZATION ( #185, #49 ) ;
#203 = ADVANCED_FACE ( 'NONE', ( #45, #149 ), #168, .T. ) ;
ENDSEC;
END-ISO-10303-21;
