ISO-10303-21;
HEADER;
FILE_DESCRIPTION (( 'STEP AP203' ),
    '1' );
FILE_NAME ('57103.step',
    '2021-11-12T10:34:55',
    ( '' ),
    ( '' ),
    'SwSTEP 2.0',
    'SolidWorks 2019',
    '' );
FILE_SCHEMA (( 'CONFIG_CONTROL_DESIGN' ));
ENDSEC;

DATA;
#1 = LOCAL_TIME ( 11, 34, 55.00000000000000000, #168 ) ;
#2 = DIRECTION ( 'NONE',  ( 0.0000000000000000000, 1.000000000000000000, 0.0000000000000000000 ) ) ;
#3 = CLOSED_SHELL ( 'NONE', ( #36, #160, #167, #81 ) ) ;
#4 = CIRCLE ( 'NONE', #17, 1.999999999999997335 ) ;
#5 = APPROVAL ( #194, 'UNSPECIFIED' ) ;
#6 = DATE_AND_TIME ( #122, #107 ) ;
#7 = ORIENTED_EDGE ( 'NONE', *, *, #189, .F. ) ;
#8 = SECURITY_CLASSIFICATION_LEVEL ( 'unclassified' ) ;
#9 = APPROVAL_PERSON_ORGANIZATION ( #79, #102, #137 ) ;
#10 = EDGE_LOOP ( 'NONE', ( #78 ) ) ;
#11 = PERSON_AND_ORGANIZATION_ROLE ( 'classification_officer' ) ;
#12 = CARTESIAN_POINT ( 'NONE',  ( 0.0000000000000000000, 0.0000000000000000000, 0.0000000000000000000 ) ) ;
#13 = COORDINATED_UNIVERSAL_TIME_OFFSET ( 1, 0, .AHEAD. ) ;
#14 = DIRECTION ( 'NONE',  ( -3.491481338843133355E-15, 1.224646799147353207E-16, -1.000000000000000000 ) ) ;
#15 = APPLICATION_CONTEXT ( 'configuration controlled 3d designs of mechanical parts and assemblies' ) ;
#16 = EDGE_LOOP ( 'NONE', ( #105 ) ) ;
#17 = AXIS2_PLACEMENT_3D ( 'NONE', #149, #14, #133 ) ;
#18 = CC_DESIGN_PERSON_AND_ORGANIZATION_ASSIGNMENT ( #162, #76, ( #152 ) ) ;
#19 = APPROVAL_STATUS ( 'not_yet_approved' ) ;
#20 = DATE_AND_TIME ( #109, #35 ) ;
#21 = VERTEX_POINT ( 'NONE', #154 ) ;
#22 = ADVANCED_FACE ( 'NONE', ( #116, #179 ), #28, .T. ) ;
#23 = COORDINATED_UNIVERSAL_TIME_OFFSET ( 1, 0, .AHEAD. ) ;
#24 = DIRECTION ( 'NONE',  ( 4.275831445896958607E-31, 1.000000000000000000, 1.224646799147353207E-16 ) ) ;
#25 = FACE_OUTER_BOUND ( 'NONE', #59, .T. ) ;
#26 = APPROVAL_DATE_TIME ( #6, #60 ) ;
#27 = APPROVAL_PERSON_ORGANIZATION ( #147, #5, #190 ) ;
#28 = CYLINDRICAL_SURFACE ( 'NONE', #126, 2.500000000000000000 ) ;
#29 = DIRECTION ( 'NONE',  ( -3.491481338843133355E-15, 1.224646799147353207E-16, -1.000000000000000000 ) ) ;
#30 = EDGE_LOOP ( 'NONE', ( #73 ) ) ;
#31 = PRODUCT ( '57103', '57103', '', ( #68 ) ) ;
#32 = CIRCLE ( 'NONE', #184, 2.500000000000000000 ) ;
#33 = DIRECTION ( 'NONE',  ( 0.0000000000000000000, 0.0000000000000000000, 1.000000000000000000 ) ) ;
#34 = PERSON_AND_ORGANIZATION_ROLE ( 'creator' ) ;
#35 = LOCAL_TIME ( 11, 34, 55.00000000000000000, #121 ) ;
#36 = ADVANCED_FACE ( 'NONE', ( #159 ), #57, .F. ) ;
#37 = PERSON_AND_ORGANIZATION ( #196, #181 ) ;
#38 = CARTESIAN_POINT ( 'NONE',  ( -1.068957861474239564E-30, 3.749399456654644020E-32, -3.061616997868383141E-16 ) ) ;
#39 = DIRECTION ( 'NONE',  ( 4.275831445896958607E-31, 1.000000000000000000, 1.224646799147353207E-16 ) ) ;
#40 = CALENDAR_DATE ( 2021, 12, 11 ) ;
#41 = EDGE_LOOP ( 'NONE', ( #195 ) ) ;
#42 = CARTESIAN_POINT ( 'NONE',  ( 1.745740669421566678E-13, 1.499759782661846660E-32, 50.00000000000000000 ) ) ;
#43 = ADVANCED_BREP_SHAPE_REPRESENTATION ( '57103', ( #47, #111, #134 ), #150 ) ;
#44 = APPLICATION_CONTEXT ( 'configuration controlled 3d designs of mechanical parts and assemblies' ) ;
#45 = EDGE_LOOP ( 'NONE', ( #74 ) ) ;
#46 = EDGE_CURVE ( 'NONE', #52, #52, #32, .T. ) ;
#47 = MANIFOLD_SOLID_BREP ( 'Corps-Déplacer/Copier1[1]', #3 ) ;
#48 = AXIS2_PLACEMENT_3D ( 'NONE', #140, #169, #82 ) ;
#49 = CALENDAR_DATE ( 2021, 12, 11 ) ;
#50 = CARTESIAN_POINT ( 'NONE',  ( 1.745740669421566425E-13, 1.999999999999991340, 49.99999999999999289 ) ) ;
#51 = AXIS2_PLACEMENT_3D ( 'NONE', #88, #70, #145 ) ;
#52 = VERTEX_POINT ( 'NONE', #139 ) ;
#53 = CARTESIAN_POINT ( 'NONE',  ( 5.237222008264700033E-14, 2.499999999999998224, 15.00000000000000000 ) ) ;
#54 = EDGE_CURVE ( 'NONE', #21, #21, #200, .T. ) ;
#55 = VERTEX_POINT ( 'NONE', #50 ) ;
#56 = CC_DESIGN_APPROVAL ( #60, ( #152 ) ) ;
#57 = PLANE ( 'NONE',  #146 ) ;
#58 = EDGE_LOOP ( 'NONE', ( #7 ) ) ;
#59 = EDGE_LOOP ( 'NONE', ( #90 ) ) ;
#60 = APPROVAL ( #19, 'UNSPECIFIED' ) ;
#61 = APPROVAL_PERSON_ORGANIZATION ( #153, #60, #80 ) ;
#62 = APPROVAL_DATE_TIME ( #201, #102 ) ;
#63 = APPLICATION_PROTOCOL_DEFINITION ( 'international standard', 'config_control_design', 1994, #44 ) ;
#64 = DIRECTION ( 'NONE',  ( 1.000000000000000000, 0.0000000000000000000, 0.0000000000000000000 ) ) ;
#65 = AXIS2_PLACEMENT_3D ( 'NONE', #129, #191, #192 ) ;
#66 = FACE_BOUND ( 'NONE', #41, .T. ) ;
#67 = DIRECTION ( 'NONE',  ( 0.0000000000000000000, 1.000000000000000000, 0.0000000000000000000 ) ) ;
#68 = MECHANICAL_CONTEXT ( 'NONE', #15, 'mechanical' ) ;
#69 = DATE_AND_TIME ( #40, #96 ) ;
#70 = DIRECTION ( 'NONE',  ( 3.491481338843133355E-15, -1.224646799147353207E-16, 1.000000000000000000 ) ) ;
#71 = CONICAL_SURFACE ( 'NONE', #48, 1.999999999999997335, 0.7853981633974518317 ) ;
#72 = APPROVAL_DATE_TIME ( #101, #5 ) ;
#73 = ORIENTED_EDGE ( 'NONE', *, *, #46, .T. ) ;
#74 = ORIENTED_EDGE ( 'NONE', *, *, #202, .F. ) ;
#75 = CC_DESIGN_DATE_AND_TIME_ASSIGNMENT ( #69, #87, ( #156 ) ) ;
#76 = PERSON_AND_ORGANIZATION_ROLE ( 'creator' ) ;
#77 = EDGE_LOOP ( 'NONE', ( #130 ) ) ;
#78 = ORIENTED_EDGE ( 'NONE', *, *, #165, .F. ) ;
#79 = PERSON_AND_ORGANIZATION ( #196, #181 ) ;
#80 = APPROVAL_ROLE ( '' ) ;
#81 = ADVANCED_FACE ( 'NONE', ( #164 ), #175, .F. ) ;
#82 = DIRECTION ( 'NONE',  ( 0.0000000000000000000, 1.000000000000000000, 0.0000000000000000000 ) ) ;
#83 = PRODUCT_RELATED_PRODUCT_CATEGORY ( 'detail', '', ( #31 ) ) ;
#84 = ADVANCED_FACE ( 'NONE', ( #85 ), #144, .T. ) ;
#85 = FACE_OUTER_BOUND ( 'NONE', #16, .T. ) ;
#86 = DIRECTION ( 'NONE',  ( -3.491481338843133355E-15, 1.224646799147353207E-16, -1.000000000000000000 ) ) ;
#87 = DATE_TIME_ROLE ( 'classification_date' ) ;
#88 = CARTESIAN_POINT ( 'NONE',  ( 5.237222008264700033E-14, 1.874699728327319273E-32, 15.00000000000000000 ) ) ;
#89 = DIRECTION ( 'NONE',  ( 4.275831445896959482E-31, 1.000000000000000000, 1.224646799147353207E-16 ) ) ;
#90 = ORIENTED_EDGE ( 'NONE', *, *, #54, .T. ) ;
#91 = AXIS2_PLACEMENT_3D ( 'NONE', #183, #188, #67 ) ;
#92 = CARTESIAN_POINT ( 'NONE',  ( 0.0000000000000000000, 0.0000000000000000000, 0.0000000000000000000 ) ) ;
#93 = CC_DESIGN_PERSON_AND_ORGANIZATION_ASSIGNMENT ( #155, #34, ( #199 ) ) ;
#94 =( NAMED_UNIT ( * ) PLANE_ANGLE_UNIT ( ) SI_UNIT ( $, .RADIAN. ) );
#95 = CARTESIAN_POINT ( 'NONE',  ( 1.728283262727351074E-13, -6.062001655779398511E-15, 49.50000000000000000 ) ) ;
#96 = LOCAL_TIME ( 11, 34, 55.00000000000000000, #23 ) ;
#97 = AXIS2_PLACEMENT_3D ( 'NONE', #38, #99, #24 ) ;
#98 = CALENDAR_DATE ( 2021, 12, 11 ) ;
#99 = DIRECTION ( 'NONE',  ( -3.491481338843133355E-15, 1.224646799147353207E-16, -1.000000000000000000 ) ) ;
#100 = DIRECTION ( 'NONE',  ( -3.491481338843133355E-15, 1.224646799147353207E-16, -1.000000000000000000 ) ) ;
#101 = DATE_AND_TIME ( #98, #170 ) ;
#102 = APPROVAL ( #185, 'UNSPECIFIED' ) ;
#103 = DIRECTION ( 'NONE',  ( 4.275831445896958607E-31, 1.000000000000000000, 1.224646799147353207E-16 ) ) ;
#104 = DIRECTION ( 'NONE',  ( -3.491481338843133355E-15, 1.224646799147353207E-16, -1.000000000000000000 ) ) ;
#105 = ORIENTED_EDGE ( 'NONE', *, *, #46, .F. ) ;
#106 = CC_DESIGN_PERSON_AND_ORGANIZATION_ASSIGNMENT ( #151, #124, ( #31 ) ) ;
#107 = LOCAL_TIME ( 11, 34, 55.00000000000000000, #203 ) ;
#108 = DESIGN_CONTEXT ( 'detailed design', #44, 'design' ) ;
#109 = CALENDAR_DATE ( 2021, 12, 11 ) ;
#110 = CARTESIAN_POINT ( 'NONE',  ( 1.728283262727351074E-13, 2.499999999999988454, 49.50000000000000000 ) ) ;
#111 = MANIFOLD_SOLID_BREP ( 'Corps-Déplacer/Copier1[2]', #117 ) ;
#112 = AXIS2_PLACEMENT_3D ( 'NONE', #12, #29, #89 ) ;
#113 = CARTESIAN_POINT ( 'NONE',  ( 5.237222008264700033E-14, -1.836970198721029589E-15, 15.00000000000000000 ) ) ;
#114 = ORIENTED_EDGE ( 'NONE', *, *, #54, .F. ) ;
#115 = CARTESIAN_POINT ( 'NONE',  ( 0.0000000000000000000, 0.0000000000000000000, 0.0000000000000000000 ) ) ;
#116 = FACE_OUTER_BOUND ( 'NONE', #30, .T. ) ;
#117 = CLOSED_SHELL ( 'NONE', ( #158, #22, #84 ) ) ;
#118 = FACE_OUTER_BOUND ( 'NONE', #58, .T. ) ;
#119 = CC_DESIGN_APPROVAL ( #102, ( #199 ) ) ;
#120 = CC_DESIGN_DATE_AND_TIME_ASSIGNMENT ( #20, #182, ( #199 ) ) ;
#121 = COORDINATED_UNIVERSAL_TIME_OFFSET ( 1, 0, .AHEAD. ) ;
#122 = CALENDAR_DATE ( 2021, 12, 11 ) ;
#123 = CIRCLE ( 'NONE', #91, 2.500000000000000000 ) ;
#124 = PERSON_AND_ORGANIZATION_ROLE ( 'design_owner' ) ;
#125 = VERTEX_POINT ( 'NONE', #110 ) ;
#126 = AXIS2_PLACEMENT_3D ( 'NONE', #115, #100, #103 ) ;
#127 = CIRCLE ( 'NONE', #138, 2.499999999999994227 ) ;
#128 = DIRECTION ( 'NONE',  ( -3.491481338843133355E-15, 1.224646799147353207E-16, -1.000000000000000000 ) ) ;
#129 = CARTESIAN_POINT ( 'NONE',  ( -5.344789307371197820E-31, 1.874699728327322010E-32, -1.530808498934191571E-16 ) ) ;
#130 = ORIENTED_EDGE ( 'NONE', *, *, #202, .T. ) ;
#131 = PLANE ( 'NONE',  #65 ) ;
#132 = PERSON_AND_ORGANIZATION_ROLE ( 'design_supplier' ) ;
#133 = DIRECTION ( 'NONE',  ( 0.0000000000000000000, 1.000000000000000000, 0.0000000000000000000 ) ) ;
#134 = AXIS2_PLACEMENT_3D ( 'NONE', #92, #33, #64 ) ;
#135 = DIRECTION ( 'NONE',  ( 3.491481338843133355E-15, -1.224646799147353207E-16, 1.000000000000000000 ) ) ;
#136 = UNCERTAINTY_MEASURE_WITH_UNIT (LENGTH_MEASURE( 1.000000000000000082E-05 ), #157, 'distance_accuracy_value', 'NONE');
#137 = APPROVAL_ROLE ( '' ) ;
#138 = AXIS2_PLACEMENT_3D ( 'NONE', #95, #128, #2 ) ;
#139 = CARTESIAN_POINT ( 'NONE',  ( 5.237222008264700033E-14, 2.499999999999998224, 15.00000000000000000 ) ) ;
#140 = CARTESIAN_POINT ( 'NONE',  ( 1.745740669421566425E-13, -6.123233995736765296E-15, 49.99999999999999289 ) ) ;
#141 =( NAMED_UNIT ( * ) SI_UNIT ( $, .STERADIAN. ) SOLID_ANGLE_UNIT ( ) );
#142 = CC_DESIGN_PERSON_AND_ORGANIZATION_ASSIGNMENT ( #37, #11, ( #156 ) ) ;
#143 = CC_DESIGN_SECURITY_CLASSIFICATION ( #156, ( #152 ) ) ;
#144 = PLANE ( 'NONE',  #51 ) ;
#145 = DIRECTION ( 'NONE',  ( -4.275831445896958607E-31, -1.000000000000000000, -1.224646799147353207E-16 ) ) ;
#146 = AXIS2_PLACEMENT_3D ( 'NONE', #161, #135, #198 ) ;
#147 = PERSON_AND_ORGANIZATION ( #196, #181 ) ;
#148 = EDGE_LOOP ( 'NONE', ( #180 ) ) ;
#149 = CARTESIAN_POINT ( 'NONE',  ( 1.745740669421566425E-13, -6.123233995736765296E-15, 49.99999999999999289 ) ) ;
#150 =( GEOMETRIC_REPRESENTATION_CONTEXT ( 3 ) GLOBAL_UNCERTAINTY_ASSIGNED_CONTEXT ( ( #136 ) ) GLOBAL_UNIT_ASSIGNED_CONTEXT ( ( #157, #94, #141 ) ) REPRESENTATION_CONTEXT ( 'NONE', 'WORKASPACE' ) );
#151 = PERSON_AND_ORGANIZATION ( #196, #181 ) ;
#152 = PRODUCT_DEFINITION_FORMATION_WITH_SPECIFIED_SOURCE ( 'ANY', '', #31, .NOT_KNOWN. ) ;
#153 = PERSON_AND_ORGANIZATION ( #196, #181 ) ;
#154 = CARTESIAN_POINT ( 'NONE',  ( 0.0000000000000000000, 2.500000000000000000, 0.0000000000000000000 ) ) ;
#155 = PERSON_AND_ORGANIZATION ( #196, #181 ) ;
#156 = SECURITY_CLASSIFICATION ( '', '', #8 ) ;
#157 =( LENGTH_UNIT ( ) NAMED_UNIT ( * ) SI_UNIT ( .MILLI., .METRE. ) );
#158 = ADVANCED_FACE ( 'NONE', ( #25 ), #131, .T. ) ;
#159 = FACE_OUTER_BOUND ( 'NONE', #77, .T. ) ;
#160 = ADVANCED_FACE ( 'NONE', ( #163, #193 ), #176, .T. ) ;
#161 = CARTESIAN_POINT ( 'NONE',  ( 5.237222008264700033E-14, 1.874699728327319273E-32, 15.00000000000000000 ) ) ;
#162 = PERSON_AND_ORGANIZATION ( #196, #181 ) ;
#163 = FACE_OUTER_BOUND ( 'NONE', #148, .T. ) ;
#164 = FACE_OUTER_BOUND ( 'NONE', #10, .T. ) ;
#165 = EDGE_CURVE ( 'NONE', #55, #55, #4, .T. ) ;
#166 = EDGE_LOOP ( 'NONE', ( #114 ) ) ;
#167 = ADVANCED_FACE ( 'NONE', ( #118, #66 ), #71, .T. ) ;
#168 = COORDINATED_UNIVERSAL_TIME_OFFSET ( 1, 0, .AHEAD. ) ;
#169 = DIRECTION ( 'NONE',  ( -3.491481338843133355E-15, 1.224646799147353207E-16, -1.000000000000000000 ) ) ;
#170 = LOCAL_TIME ( 11, 34, 55.00000000000000000, #13 ) ;
#171 = APPLICATION_PROTOCOL_DEFINITION ( 'international standard', 'config_control_design', 1994, #15 ) ;
#172 = AXIS2_PLACEMENT_3D ( 'NONE', #42, #104, #39 ) ;
#173 = DIRECTION ( 'NONE',  ( 0.0000000000000000000, 1.000000000000000000, 0.0000000000000000000 ) ) ;
#174 = SHAPE_DEFINITION_REPRESENTATION ( #197, #43 ) ;
#175 = PLANE ( 'NONE',  #172 ) ;
#176 = CYLINDRICAL_SURFACE ( 'NONE', #112, 2.499999999999996891 ) ;
#177 = PERSON_AND_ORGANIZATION ( #196, #181 ) ;
#178 = CC_DESIGN_PERSON_AND_ORGANIZATION_ASSIGNMENT ( #177, #132, ( #152 ) ) ;
#179 = FACE_OUTER_BOUND ( 'NONE', #166, .T. ) ;
#180 = ORIENTED_EDGE ( 'NONE', *, *, #189, .T. ) ;
#181 = ORGANIZATION ( 'UNSPECIFIED', 'UNSPECIFIED', '' ) ;
#182 = DATE_TIME_ROLE ( 'creation_date' ) ;
#183 = CARTESIAN_POINT ( 'NONE',  ( 5.237222008264700033E-14, -1.836970198721029589E-15, 15.00000000000000000 ) ) ;
#184 = AXIS2_PLACEMENT_3D ( 'NONE', #113, #86, #173 ) ;
#185 = APPROVAL_STATUS ( 'not_yet_approved' ) ;
#186 = VERTEX_POINT ( 'NONE', #53 ) ;
#187 = CC_DESIGN_APPROVAL ( #5, ( #156 ) ) ;
#188 = DIRECTION ( 'NONE',  ( -3.491481338843133355E-15, 1.224646799147353207E-16, -1.000000000000000000 ) ) ;
#189 = EDGE_CURVE ( 'NONE', #125, #125, #127, .T. ) ;
#190 = APPROVAL_ROLE ( '' ) ;
#191 = DIRECTION ( 'NONE',  ( -3.491481338843133355E-15, 1.224646799147353207E-16, -1.000000000000000000 ) ) ;
#192 = DIRECTION ( 'NONE',  ( 4.275831445896958607E-31, 1.000000000000000000, 1.224646799147353207E-16 ) ) ;
#193 = FACE_OUTER_BOUND ( 'NONE', #45, .T. ) ;
#194 = APPROVAL_STATUS ( 'not_yet_approved' ) ;
#195 = ORIENTED_EDGE ( 'NONE', *, *, #165, .T. ) ;
#196 = PERSON ( 'UNSPECIFIED', 'UNSPECIFIED', 'UNSPECIFIED', ('UNSPECIFIED'), ('UNSPECIFIED'), ('UNSPECIFIED') ) ;
#197 = PRODUCT_DEFINITION_SHAPE ( 'NONE', 'NONE',  #199 ) ;
#198 = DIRECTION ( 'NONE',  ( -4.275831445896958607E-31, -1.000000000000000000, -1.224646799147353207E-16 ) ) ;
#199 = PRODUCT_DEFINITION ( 'UNKNOWN', '', #152, #108 ) ;
#200 = CIRCLE ( 'NONE', #97, 2.500000000000000000 ) ;
#201 = DATE_AND_TIME ( #49, #1 ) ;
#202 = EDGE_CURVE ( 'NONE', #186, #186, #123, .T. ) ;
#203 = COORDINATED_UNIVERSAL_TIME_OFFSET ( 1, 0, .AHEAD. ) ;
ENDSEC;
END-ISO-10303-21;
