ISO-10303-21;
HEADER;
FILE_DESCRIPTION (( 'STEP AP203' ),
    '1' );
FILE_NAME ('57102.step',
    '2021-11-12T10:34:54',
    ( '' ),
    ( '' ),
    'SwSTEP 2.0',
    'SolidWorks 2019',
    '' );
FILE_SCHEMA (( 'CONFIG_CONTROL_DESIGN' ));
ENDSEC;

DATA;
#1 = FACE_OUTER_BOUND ( 'NONE', #110, .T. ) ;
#2 = FACE_OUTER_BOUND ( 'NONE', #170, .T. ) ;
#3 = CARTESIAN_POINT ( 'NONE',  ( 1.745740669421566678E-13, -6.123233995736766085E-15, 50.00000000000000000 ) ) ;
#4 = CARTESIAN_POINT ( 'NONE',  ( 0.0000000000000000000, 0.0000000000000000000, 0.0000000000000000000 ) ) ;
#5 = ADVANCED_FACE ( 'NONE', ( #95 ), #202, .T. ) ;
#6 = DESIGN_CONTEXT ( 'detailed design', #51, 'design' ) ;
#7 = PERSON_AND_ORGANIZATION_ROLE ( 'design_owner' ) ;
#8 = CALENDAR_DATE ( 2021, 12, 11 ) ;
#9 = AXIS2_PLACEMENT_3D ( 'NONE', #19, #146, #192 ) ;
#10 = PERSON_AND_ORGANIZATION ( #44, #108 ) ;
#11 = ADVANCED_FACE ( 'NONE', ( #31 ), #83, .F. ) ;
#12 = EDGE_LOOP ( 'NONE', ( #63 ) ) ;
#13 = DIRECTION ( 'NONE',  ( -3.491481338843133355E-15, 1.224646799147353207E-16, -1.000000000000000000 ) ) ;
#14 = LOCAL_TIME ( 11, 34, 54.00000000000000000, #90 ) ;
#15 = DIRECTION ( 'NONE',  ( -4.275831445896958607E-31, -1.000000000000000000, -1.224646799147353207E-16 ) ) ;
#16 = CARTESIAN_POINT ( 'NONE',  ( -8.551662891793915461E-31, 2.999519565323715216E-32, -2.449293598294706414E-16 ) ) ;
#17 = CARTESIAN_POINT ( 'NONE',  ( 0.0000000000000000000, 0.0000000000000000000, 0.0000000000000000000 ) ) ;
#18 = DIRECTION ( 'NONE',  ( 4.275831445896958607E-31, 1.000000000000000000, 1.224646799147353207E-16 ) ) ;
#19 = CARTESIAN_POINT ( 'NONE',  ( 0.0000000000000000000, 0.0000000000000000000, 0.0000000000000000000 ) ) ;
#20 = DATE_AND_TIME ( #104, #130 ) ;
#21 = MECHANICAL_CONTEXT ( 'NONE', #43, 'mechanical' ) ;
#22 = CIRCLE ( 'NONE', #93, 2.000000000000000000 ) ;
#23 = PERSON_AND_ORGANIZATION_ROLE ( 'design_supplier' ) ;
#24 = PERSON_AND_ORGANIZATION_ROLE ( 'creator' ) ;
#25 = MANIFOLD_SOLID_BREP ( 'Corps-Déplacer/Copier1[1]', #60 ) ;
#26 = LOCAL_TIME ( 11, 34, 54.00000000000000000, #183 ) ;
#27 = MANIFOLD_SOLID_BREP ( 'Corps-Déplacer/Copier1[2]', #123 ) ;
#28 = APPROVAL ( #92, 'UNSPECIFIED' ) ;
#29 = ORIENTED_EDGE ( 'NONE', *, *, #30, .F. ) ;
#30 = EDGE_CURVE ( 'NONE', #191, #191, #166, .T. ) ;
#31 = FACE_OUTER_BOUND ( 'NONE', #199, .T. ) ;
#32 = DIRECTION ( 'NONE',  ( -4.275831445896958607E-31, -1.000000000000000000, -1.224646799147353207E-16 ) ) ;
#33 = DIRECTION ( 'NONE',  ( 4.275831445896958607E-31, 1.000000000000000000, 1.224646799147353207E-16 ) ) ;
#34 = FACE_OUTER_BOUND ( 'NONE', #169, .T. ) ;
#35 =( NAMED_UNIT ( * ) PLANE_ANGLE_UNIT ( ) SI_UNIT ( $, .RADIAN. ) );
#36 = PERSON_AND_ORGANIZATION ( #44, #108 ) ;
#37 =( LENGTH_UNIT ( ) NAMED_UNIT ( * ) SI_UNIT ( .MILLI., .METRE. ) );
#38 = PERSON_AND_ORGANIZATION ( #44, #108 ) ;
#39 = DATE_AND_TIME ( #8, #26 ) ;
#40 = CC_DESIGN_APPROVAL ( #184, ( #180 ) ) ;
#41 = APPROVAL_DATE_TIME ( #39, #184 ) ;
#42 = APPROVAL_DATE_TIME ( #196, #28 ) ;
#43 = APPLICATION_CONTEXT ( 'configuration controlled 3d designs of mechanical parts and assemblies' ) ;
#44 = PERSON ( 'UNSPECIFIED', 'UNSPECIFIED', 'UNSPECIFIED', ('UNSPECIFIED'), ('UNSPECIFIED'), ('UNSPECIFIED') ) ;
#45 = PRODUCT ( '57102', '57102', '', ( #21 ) ) ;
#46 = ORIENTED_EDGE ( 'NONE', *, *, #172, .F. ) ;
#47 = AXIS2_PLACEMENT_3D ( 'NONE', #4, #142, #113 ) ;
#48 = FACE_OUTER_BOUND ( 'NONE', #171, .T. ) ;
#49 = DIRECTION ( 'NONE',  ( -3.491481338843133355E-15, 1.224646799147353207E-16, -1.000000000000000000 ) ) ;
#50 = CARTESIAN_POINT ( 'NONE',  ( 1.731774744066194397E-13, -6.074248123770872657E-15, 49.60000000000000853 ) ) ;
#51 = APPLICATION_CONTEXT ( 'configuration controlled 3d designs of mechanical parts and assemblies' ) ;
#52 = CC_DESIGN_PERSON_AND_ORGANIZATION_ASSIGNMENT ( #163, #75, ( #180 ) ) ;
#53 = PLANE ( 'NONE',  #98 ) ;
#54 = VERTEX_POINT ( 'NONE', #140 ) ;
#55 = APPROVAL_DATE_TIME ( #145, #106 ) ;
#56 = CC_DESIGN_APPROVAL ( #106, ( #164 ) ) ;
#57 = CALENDAR_DATE ( 2021, 12, 11 ) ;
#58 = DATE_TIME_ROLE ( 'classification_date' ) ;
#59 = CALENDAR_DATE ( 2021, 12, 11 ) ;
#60 = CLOSED_SHELL ( 'NONE', ( #74, #201, #137, #11 ) ) ;
#61 = EDGE_LOOP ( 'NONE', ( #94 ) ) ;
#62 = CIRCLE ( 'NONE', #176, 1.599999999999999867 ) ;
#63 = ORIENTED_EDGE ( 'NONE', *, *, #139, .T. ) ;
#64 = ORIENTED_EDGE ( 'NONE', *, *, #158, .T. ) ;
#65 = ORIENTED_EDGE ( 'NONE', *, *, #139, .F. ) ;
#66 = DIRECTION ( 'NONE',  ( 4.275831445896958607E-31, 1.000000000000000000, 1.224646799147353207E-16 ) ) ;
#67 = CC_DESIGN_APPROVAL ( #28, ( #116 ) ) ;
#68 = CARTESIAN_POINT ( 'NONE',  ( 1.731774744066194397E-13, 1.999999999999994893, 49.60000000000000853 ) ) ;
#69 = DIRECTION ( 'NONE',  ( -3.491481338843133355E-15, 1.224646799147353207E-16, -1.000000000000000000 ) ) ;
#70 = CC_DESIGN_PERSON_AND_ORGANIZATION_ASSIGNMENT ( #150, #24, ( #164 ) ) ;
#71 = CARTESIAN_POINT ( 'NONE',  ( 4.189777606611760026E-14, -1.469576158976823947E-15, 12.00000000000000000 ) ) ;
#72 = CC_DESIGN_SECURITY_CLASSIFICATION ( #180, ( #116 ) ) ;
#73 = APPLICATION_PROTOCOL_DEFINITION ( 'international standard', 'config_control_design', 1994, #43 ) ;
#74 = ADVANCED_FACE ( 'NONE', ( #34 ), #156, .F. ) ;
#75 = PERSON_AND_ORGANIZATION_ROLE ( 'classification_officer' ) ;
#76 = AXIS2_PLACEMENT_3D ( 'NONE', #179, #127, #66 ) ;
#77 = APPLICATION_PROTOCOL_DEFINITION ( 'international standard', 'config_control_design', 1994, #51 ) ;
#78 = DATE_TIME_ROLE ( 'creation_date' ) ;
#79 = EDGE_LOOP ( 'NONE', ( #46 ) ) ;
#80 = ORIENTED_EDGE ( 'NONE', *, *, #109, .F. ) ;
#81 = CARTESIAN_POINT ( 'NONE',  ( 1.745740669421566678E-13, 1.599999999999993872, 50.00000000000000000 ) ) ;
#82 = CONICAL_SURFACE ( 'NONE', #136, 1.599999999999999867, 0.7853981633974526089 ) ;
#83 = PLANE ( 'NONE',  #154 ) ;
#84 = FACE_BOUND ( 'NONE', #12, .T. ) ;
#85 = DIRECTION ( 'NONE',  ( 3.491481338843133355E-15, -1.224646799147353207E-16, 1.000000000000000000 ) ) ;
#86 = CARTESIAN_POINT ( 'NONE',  ( 1.745740669421566678E-13, 1.199807826129476918E-32, 50.00000000000000000 ) ) ;
#87 = ADVANCED_FACE ( 'NONE', ( #2 ), #53, .T. ) ;
#88 = APPROVAL_ROLE ( '' ) ;
#89 = PERSON_AND_ORGANIZATION ( #44, #108 ) ;
#90 = COORDINATED_UNIVERSAL_TIME_OFFSET ( 1, 0, .AHEAD. ) ;
#91 = CC_DESIGN_PERSON_AND_ORGANIZATION_ASSIGNMENT ( #36, #23, ( #116 ) ) ;
#92 = APPROVAL_STATUS ( 'not_yet_approved' ) ;
#93 = AXIS2_PLACEMENT_3D ( 'NONE', #178, #49, #187 ) ;
#94 = ORIENTED_EDGE ( 'NONE', *, *, #172, .T. ) ;
#95 = FACE_OUTER_BOUND ( 'NONE', #124, .T. ) ;
#96 = VERTEX_POINT ( 'NONE', #117 ) ;
#97 = DIRECTION ( 'NONE',  ( -3.491481338843133355E-15, 1.224646799147353207E-16, -1.000000000000000000 ) ) ;
#98 = AXIS2_PLACEMENT_3D ( 'NONE', #101, #85, #15 ) ;
#99 = CYLINDRICAL_SURFACE ( 'NONE', #193, 2.000000000000000000 ) ;
#100 = CYLINDRICAL_SURFACE ( 'NONE', #47, 2.000000000000000444 ) ;
#101 = CARTESIAN_POINT ( 'NONE',  ( 4.189777606611760026E-14, 1.499759782661855966E-32, 12.00000000000000000 ) ) ;
#102 = APPROVAL_PERSON_ORGANIZATION ( #135, #106, #194 ) ;
#103 = CC_DESIGN_DATE_AND_TIME_ASSIGNMENT ( #149, #78, ( #164 ) ) ;
#104 = CALENDAR_DATE ( 2021, 12, 11 ) ;
#105 = APPROVAL_STATUS ( 'not_yet_approved' ) ;
#106 = APPROVAL ( #119, 'UNSPECIFIED' ) ;
#107 = APPROVAL_PERSON_ORGANIZATION ( #10, #28, #120 ) ;
#108 = ORGANIZATION ( 'UNSPECIFIED', 'UNSPECIFIED', '' ) ;
#109 = EDGE_CURVE ( 'NONE', #96, #96, #148, .T. ) ;
#110 = EDGE_LOOP ( 'NONE', ( #138 ) ) ;
#111 = ADVANCED_BREP_SHAPE_REPRESENTATION ( '57102', ( #25, #27, #9 ), #200 ) ;
#112 = AXIS2_PLACEMENT_3D ( 'NONE', #71, #97, #141 ) ;
#113 = DIRECTION ( 'NONE',  ( 4.275831445896958607E-31, 1.000000000000000000, 1.224646799147353207E-16 ) ) ;
#114 = DIRECTION ( 'NONE',  ( 3.491481338843133355E-15, -1.224646799147353207E-16, 1.000000000000000000 ) ) ;
#115 = FACE_OUTER_BOUND ( 'NONE', #126, .T. ) ;
#116 = PRODUCT_DEFINITION_FORMATION_WITH_SPECIFIED_SOURCE ( 'ANY', '', #45, .NOT_KNOWN. ) ;
#117 = CARTESIAN_POINT ( 'NONE',  ( 1.710569414459005214E-46, 2.000000000000000000, 0.0000000000000000000 ) ) ;
#118 = VERTEX_POINT ( 'NONE', #68 ) ;
#119 = APPROVAL_STATUS ( 'not_yet_approved' ) ;
#120 = APPROVAL_ROLE ( '' ) ;
#121 = COORDINATED_UNIVERSAL_TIME_OFFSET ( 1, 0, .AHEAD. ) ;
#122 = SHAPE_DEFINITION_REPRESENTATION ( #159, #111 ) ;
#123 = CLOSED_SHELL ( 'NONE', ( #5, #198, #87 ) ) ;
#124 = EDGE_LOOP ( 'NONE', ( #152 ) ) ;
#125 = CC_DESIGN_PERSON_AND_ORGANIZATION_ASSIGNMENT ( #38, #133, ( #116 ) ) ;
#126 = EDGE_LOOP ( 'NONE', ( #80 ) ) ;
#127 = DIRECTION ( 'NONE',  ( -3.491481338843133355E-15, 1.224646799147353207E-16, -1.000000000000000000 ) ) ;
#128 = DIRECTION ( 'NONE',  ( 0.0000000000000000000, 1.000000000000000000, 0.0000000000000000000 ) ) ;
#129 = DIRECTION ( 'NONE',  ( 0.0000000000000000000, 1.000000000000000000, 0.0000000000000000000 ) ) ;
#130 = LOCAL_TIME ( 11, 34, 54.00000000000000000, #147 ) ;
#131 = DIRECTION ( 'NONE',  ( -3.491481338843133355E-15, 1.224646799147353207E-16, -1.000000000000000000 ) ) ;
#132 =( NAMED_UNIT ( * ) SI_UNIT ( $, .STERADIAN. ) SOLID_ANGLE_UNIT ( ) );
#133 = PERSON_AND_ORGANIZATION_ROLE ( 'creator' ) ;
#134 = AXIS2_PLACEMENT_3D ( 'NONE', #50, #13, #190 ) ;
#135 = PERSON_AND_ORGANIZATION ( #44, #108 ) ;
#136 = AXIS2_PLACEMENT_3D ( 'NONE', #155, #188, #128 ) ;
#137 = ADVANCED_FACE ( 'NONE', ( #186, #84 ), #82, .T. ) ;
#138 = ORIENTED_EDGE ( 'NONE', *, *, #30, .T. ) ;
#139 = EDGE_CURVE ( 'NONE', #160, #160, #62, .T. ) ;
#140 = CARTESIAN_POINT ( 'NONE',  ( 4.189777606611760026E-14, 1.999999999999998668, 12.00000000000000000 ) ) ;
#141 = DIRECTION ( 'NONE',  ( 0.0000000000000000000, 1.000000000000000000, 0.0000000000000000000 ) ) ;
#142 = DIRECTION ( 'NONE',  ( -3.491481338843133355E-15, 1.224646799147353207E-16, -1.000000000000000000 ) ) ;
#143 = PRODUCT_RELATED_PRODUCT_CATEGORY ( 'detail', '', ( #45 ) ) ;
#144 = DIRECTION ( 'NONE',  ( -3.491481338843133355E-15, 1.224646799147353207E-16, -1.000000000000000000 ) ) ;
#145 = DATE_AND_TIME ( #182, #161 ) ;
#146 = DIRECTION ( 'NONE',  ( 0.0000000000000000000, 0.0000000000000000000, 1.000000000000000000 ) ) ;
#147 = COORDINATED_UNIVERSAL_TIME_OFFSET ( 1, 0, .AHEAD. ) ;
#148 = CIRCLE ( 'NONE', #168, 2.000000000000000000 ) ;
#149 = DATE_AND_TIME ( #59, #151 ) ;
#150 = PERSON_AND_ORGANIZATION ( #44, #108 ) ;
#151 = LOCAL_TIME ( 11, 34, 54.00000000000000000, #197 ) ;
#152 = ORIENTED_EDGE ( 'NONE', *, *, #109, .T. ) ;
#153 = ORIENTED_EDGE ( 'NONE', *, *, #158, .F. ) ;
#154 = AXIS2_PLACEMENT_3D ( 'NONE', #86, #162, #174 ) ;
#155 = CARTESIAN_POINT ( 'NONE',  ( 1.745740669421566678E-13, -6.123233995736766085E-15, 50.00000000000000000 ) ) ;
#156 = PLANE ( 'NONE',  #185 ) ;
#157 = FACE_OUTER_BOUND ( 'NONE', #61, .T. ) ;
#158 = EDGE_CURVE ( 'NONE', #54, #54, #22, .T. ) ;
#159 = PRODUCT_DEFINITION_SHAPE ( 'NONE', 'NONE',  #164 ) ;
#160 = VERTEX_POINT ( 'NONE', #81 ) ;
#161 = LOCAL_TIME ( 11, 34, 54.00000000000000000, #121 ) ;
#162 = DIRECTION ( 'NONE',  ( -3.491481338843133355E-15, 1.224646799147353207E-16, -1.000000000000000000 ) ) ;
#163 = PERSON_AND_ORGANIZATION ( #44, #108 ) ;
#164 = PRODUCT_DEFINITION ( 'UNKNOWN', '', #116, #6 ) ;
#165 = PERSON_AND_ORGANIZATION ( #44, #108 ) ;
#166 = CIRCLE ( 'NONE', #112, 2.000000000000000000 ) ;
#167 = CC_DESIGN_DATE_AND_TIME_ASSIGNMENT ( #20, #58, ( #180 ) ) ;
#168 = AXIS2_PLACEMENT_3D ( 'NONE', #16, #131, #18 ) ;
#169 = EDGE_LOOP ( 'NONE', ( #64 ) ) ;
#170 = EDGE_LOOP ( 'NONE', ( #29 ) ) ;
#171 = EDGE_LOOP ( 'NONE', ( #153 ) ) ;
#172 = EDGE_CURVE ( 'NONE', #118, #118, #189, .T. ) ;
#173 = CARTESIAN_POINT ( 'NONE',  ( 4.189777606611760026E-14, 1.999999999999998668, 12.00000000000000000 ) ) ;
#174 = DIRECTION ( 'NONE',  ( 4.275831445896958607E-31, 1.000000000000000000, 1.224646799147353207E-16 ) ) ;
#175 = CC_DESIGN_PERSON_AND_ORGANIZATION_ASSIGNMENT ( #89, #7, ( #45 ) ) ;
#176 = AXIS2_PLACEMENT_3D ( 'NONE', #3, #69, #129 ) ;
#177 = CARTESIAN_POINT ( 'NONE',  ( 4.189777606611760026E-14, 1.499759782661855966E-32, 12.00000000000000000 ) ) ;
#178 = CARTESIAN_POINT ( 'NONE',  ( 4.189777606611760026E-14, -1.469576158976823947E-15, 12.00000000000000000 ) ) ;
#179 = CARTESIAN_POINT ( 'NONE',  ( -4.275831445896957731E-31, 1.499759782661857608E-32, -1.224646799147353207E-16 ) ) ;
#180 = SECURITY_CLASSIFICATION ( '', '', #181 ) ;
#181 = SECURITY_CLASSIFICATION_LEVEL ( 'unclassified' ) ;
#182 = CALENDAR_DATE ( 2021, 12, 11 ) ;
#183 = COORDINATED_UNIVERSAL_TIME_OFFSET ( 1, 0, .AHEAD. ) ;
#184 = APPROVAL ( #105, 'UNSPECIFIED' ) ;
#185 = AXIS2_PLACEMENT_3D ( 'NONE', #177, #114, #32 ) ;
#186 = FACE_OUTER_BOUND ( 'NONE', #79, .T. ) ;
#187 = DIRECTION ( 'NONE',  ( 0.0000000000000000000, 1.000000000000000000, 0.0000000000000000000 ) ) ;
#188 = DIRECTION ( 'NONE',  ( -3.491481338843133355E-15, 1.224646799147353207E-16, -1.000000000000000000 ) ) ;
#189 = CIRCLE ( 'NONE', #134, 2.000000000000000888 ) ;
#190 = DIRECTION ( 'NONE',  ( 0.0000000000000000000, 1.000000000000000000, 0.0000000000000000000 ) ) ;
#191 = VERTEX_POINT ( 'NONE', #173 ) ;
#192 = DIRECTION ( 'NONE',  ( 1.000000000000000000, 0.0000000000000000000, 0.0000000000000000000 ) ) ;
#193 = AXIS2_PLACEMENT_3D ( 'NONE', #17, #144, #33 ) ;
#194 = APPROVAL_ROLE ( '' ) ;
#195 = UNCERTAINTY_MEASURE_WITH_UNIT (LENGTH_MEASURE( 1.000000000000000082E-05 ), #37, 'distance_accuracy_value', 'NONE');
#196 = DATE_AND_TIME ( #57, #14 ) ;
#197 = COORDINATED_UNIVERSAL_TIME_OFFSET ( 1, 0, .AHEAD. ) ;
#198 = ADVANCED_FACE ( 'NONE', ( #1, #115 ), #99, .T. ) ;
#199 = EDGE_LOOP ( 'NONE', ( #65 ) ) ;
#200 =( GEOMETRIC_REPRESENTATION_CONTEXT ( 3 ) GLOBAL_UNCERTAINTY_ASSIGNED_CONTEXT ( ( #195 ) ) GLOBAL_UNIT_ASSIGNED_CONTEXT ( ( #37, #35, #132 ) ) REPRESENTATION_CONTEXT ( 'NONE', 'WORKASPACE' ) );
#201 = ADVANCED_FACE ( 'NONE', ( #157, #48 ), #100, .T. ) ;
#202 = PLANE ( 'NONE',  #76 ) ;
#203 = APPROVAL_PERSON_ORGANIZATION ( #165, #184, #88 ) ;
ENDSEC;
END-ISO-10303-21;
