ISO-10303-21;
HEADER;
FILE_DESCRIPTION (( 'STEP AP203' ),
    '1' );
FILE_NAME ('57101.step',
    '2021-11-12T10:34:54',
    ( '' ),
    ( '' ),
    'SwSTEP 2.0',
    'SolidWorks 2019',
    '' );
FILE_SCHEMA (( 'CONFIG_CONTROL_DESIGN' ));
ENDSEC;

DATA;
#1 = AXIS2_PLACEMENT_3D ( 'NONE', #109, #159, #22 ) ;
#2 = DIRECTION ( 'NONE',  ( -3.491481338843133355E-15, 1.224646799147353207E-16, -1.000000000000000000 ) ) ;
#3 = SHAPE_DEFINITION_REPRESENTATION ( #188, #136 ) ;
#4 = DIRECTION ( 'NONE',  ( -3.491481338843133355E-15, 1.224646799147353207E-16, -1.000000000000000000 ) ) ;
#5 = COORDINATED_UNIVERSAL_TIME_OFFSET ( 1, 0, .AHEAD. ) ;
#6 = DIRECTION ( 'NONE',  ( 3.491481338843133355E-15, -1.224646799147353207E-16, 1.000000000000000000 ) ) ;
#7 = ORIENTED_EDGE ( 'NONE', *, *, #135, .T. ) ;
#8 = FACE_OUTER_BOUND ( 'NONE', #12, .T. ) ;
#9 = AXIS2_PLACEMENT_3D ( 'NONE', #86, #126, #197 ) ;
#10 = ADVANCED_FACE ( 'NONE', ( #8, #99 ), #15, .T. ) ;
#11 = APPROVAL ( #142, 'UNSPECIFIED' ) ;
#12 = EDGE_LOOP ( 'NONE', ( #7 ) ) ;
#13 = DESIGN_CONTEXT ( 'detailed design', #202, 'design' ) ;
#14 = APPROVAL_ROLE ( '' ) ;
#15 = CYLINDRICAL_SURFACE ( 'NONE', #161, 1.749999999999999778 ) ;
#16 = COORDINATED_UNIVERSAL_TIME_OFFSET ( 1, 0, .AHEAD. ) ;
#17 = DIRECTION ( 'NONE',  ( -3.491481338843133355E-15, 1.224646799147353207E-16, -1.000000000000000000 ) ) ;
#18 = DATE_AND_TIME ( #194, #96 ) ;
#19 = AXIS2_PLACEMENT_3D ( 'NONE', #69, #110, #115 ) ;
#20 = FACE_BOUND ( 'NONE', #45, .T. ) ;
#21 = PERSON_AND_ORGANIZATION ( #57, #28 ) ;
#22 = DIRECTION ( 'NONE',  ( 4.275831445896958607E-31, 1.000000000000000000, 1.224646799147353207E-16 ) ) ;
#23 = DIRECTION ( 'NONE',  ( 0.0000000000000000000, 1.000000000000000000, 0.0000000000000000000 ) ) ;
#24 = AXIS2_PLACEMENT_3D ( 'NONE', #72, #122, #84 ) ;
#25 = EDGE_CURVE ( 'NONE', #56, #56, #89, .T. ) ;
#26 = CARTESIAN_POINT ( 'NONE',  ( 4.189777606611760026E-14, 1.749999999999998668, 12.00000000000000000 ) ) ;
#27 = ORIENTED_EDGE ( 'NONE', *, *, #42, .T. ) ;
#28 = ORGANIZATION ( 'UNSPECIFIED', 'UNSPECIFIED', '' ) ;
#29 = CARTESIAN_POINT ( 'NONE',  ( -7.482705030319677999E-31, 2.624579619658250814E-32, -2.143131898507868297E-16 ) ) ;
#30 = PERSON_AND_ORGANIZATION ( #57, #28 ) ;
#31 = PERSON_AND_ORGANIZATION ( #57, #28 ) ;
#32 = DIRECTION ( 'NONE',  ( 3.491481338843133355E-15, -1.224646799147353207E-16, 1.000000000000000000 ) ) ;
#33 = PERSON_AND_ORGANIZATION ( #57, #28 ) ;
#34 = DIRECTION ( 'NONE',  ( 4.275831445896958607E-31, 1.000000000000000000, 1.224646799147353207E-16 ) ) ;
#35 = CARTESIAN_POINT ( 'NONE',  ( 4.189777606611760026E-14, 1.312289809829123491E-32, 12.00000000000000000 ) ) ;
#36 = DIRECTION ( 'NONE',  ( 4.275831445896958607E-31, 1.000000000000000000, 1.224646799147353207E-16 ) ) ;
#37 = CARTESIAN_POINT ( 'NONE',  ( 4.189777606611760026E-14, 1.749999999999998668, 12.00000000000000000 ) ) ;
#38 = MANIFOLD_SOLID_BREP ( 'Corps-Déplacer/Copier1[1]', #173 ) ;
#39 =( GEOMETRIC_REPRESENTATION_CONTEXT ( 3 ) GLOBAL_UNCERTAINTY_ASSIGNED_CONTEXT ( ( #64 ) ) GLOBAL_UNIT_ASSIGNED_CONTEXT ( ( #168, #169, #130 ) ) REPRESENTATION_CONTEXT ( 'NONE', 'WORKASPACE' ) );
#40 = PRODUCT ( '57101', '57101', '', ( #165 ) ) ;
#41 = ORIENTED_EDGE ( 'NONE', *, *, #171, .T. ) ;
#42 = EDGE_CURVE ( 'NONE', #104, #104, #172, .T. ) ;
#43 = AXIS2_PLACEMENT_3D ( 'NONE', #50, #164, #52 ) ;
#44 = SECURITY_CLASSIFICATION ( '', '', #158 ) ;
#45 = EDGE_LOOP ( 'NONE', ( #91 ) ) ;
#46 = COORDINATED_UNIVERSAL_TIME_OFFSET ( 1, 0, .AHEAD. ) ;
#47 = FACE_OUTER_BOUND ( 'NONE', #58, .T. ) ;
#48 = CYLINDRICAL_SURFACE ( 'NONE', #19, 1.750000000000000222 ) ;
#49 = DIRECTION ( 'NONE',  ( 0.0000000000000000000, 0.0000000000000000000, 1.000000000000000000 ) ) ;
#50 = CARTESIAN_POINT ( 'NONE',  ( 4.189777606611760026E-14, -1.469576158976823947E-15, 12.00000000000000000 ) ) ;
#51 = CC_DESIGN_APPROVAL ( #156, ( #151 ) ) ;
#52 = DIRECTION ( 'NONE',  ( 0.0000000000000000000, 1.000000000000000000, 0.0000000000000000000 ) ) ;
#53 = PRODUCT_RELATED_PRODUCT_CATEGORY ( 'detail', '', ( #40 ) ) ;
#54 = PERSON_AND_ORGANIZATION ( #57, #28 ) ;
#55 = VERTEX_POINT ( 'NONE', #200 ) ;
#56 = VERTEX_POINT ( 'NONE', #185 ) ;
#57 = PERSON ( 'UNSPECIFIED', 'UNSPECIFIED', 'UNSPECIFIED', ('UNSPECIFIED'), ('UNSPECIFIED'), ('UNSPECIFIED') ) ;
#58 = EDGE_LOOP ( 'NONE', ( #59 ) ) ;
#59 = ORIENTED_EDGE ( 'NONE', *, *, #25, .T. ) ;
#60 = PRODUCT_DEFINITION_FORMATION_WITH_SPECIFIED_SOURCE ( 'ANY', '', #40, .NOT_KNOWN. ) ;
#61 = ADVANCED_FACE ( 'NONE', ( #157 ), #65, .F. ) ;
#62 = APPROVAL_PERSON_ORGANIZATION ( #175, #11, #183 ) ;
#63 = AXIS2_PLACEMENT_3D ( 'NONE', #132, #184, #36 ) ;
#64 = UNCERTAINTY_MEASURE_WITH_UNIT (LENGTH_MEASURE( 1.000000000000000082E-05 ), #168, 'distance_accuracy_value', 'NONE');
#65 = PLANE ( 'NONE',  #105 ) ;
#66 = CC_DESIGN_DATE_AND_TIME_ASSIGNMENT ( #163, #73, ( #44 ) ) ;
#67 = DIRECTION ( 'NONE',  ( -4.275831445896958607E-31, -1.000000000000000000, -1.224646799147353207E-16 ) ) ;
#68 = APPROVAL_STATUS ( 'not_yet_approved' ) ;
#69 = CARTESIAN_POINT ( 'NONE',  ( 0.0000000000000000000, 0.0000000000000000000, 0.0000000000000000000 ) ) ;
#70 = PLANE ( 'NONE',  #152 ) ;
#71 = PERSON_AND_ORGANIZATION ( #57, #28 ) ;
#72 = CARTESIAN_POINT ( 'NONE',  ( 1.326762908760390675E-13, -4.653657836759942730E-15, 38.00000000000000711 ) ) ;
#73 = DATE_TIME_ROLE ( 'classification_date' ) ;
#74 = CARTESIAN_POINT ( 'NONE',  ( 0.0000000000000000000, 0.0000000000000000000, 0.0000000000000000000 ) ) ;
#75 = VERTEX_POINT ( 'NONE', #37 ) ;
#76 = CC_DESIGN_APPROVAL ( #103, ( #44 ) ) ;
#77 = LOCAL_TIME ( 11, 34, 54.00000000000000000, #16 ) ;
#78 = CC_DESIGN_DATE_AND_TIME_ASSIGNMENT ( #155, #80, ( #151 ) ) ;
#79 = CC_DESIGN_PERSON_AND_ORGANIZATION_ASSIGNMENT ( #31, #98, ( #40 ) ) ;
#80 = DATE_TIME_ROLE ( 'creation_date' ) ;
#81 = EDGE_LOOP ( 'NONE', ( #144 ) ) ;
#82 = APPROVAL_STATUS ( 'not_yet_approved' ) ;
#83 = CC_DESIGN_APPROVAL ( #11, ( #60 ) ) ;
#84 = DIRECTION ( 'NONE',  ( 0.0000000000000000000, 1.000000000000000000, 0.0000000000000000000 ) ) ;
#85 = AXIS2_PLACEMENT_3D ( 'NONE', #29, #2, #199 ) ;
#86 = CARTESIAN_POINT ( 'NONE',  ( 1.326762908760390675E-13, -4.653657836759942730E-15, 38.00000000000000711 ) ) ;
#87 = EDGE_LOOP ( 'NONE', ( #27 ) ) ;
#88 = CALENDAR_DATE ( 2021, 12, 11 ) ;
#89 = CIRCLE ( 'NONE', #85, 1.750000000000000000 ) ;
#90 = ORIENTED_EDGE ( 'NONE', *, *, #42, .F. ) ;
#91 = ORIENTED_EDGE ( 'NONE', *, *, #108, .T. ) ;
#92 = CC_DESIGN_PERSON_AND_ORGANIZATION_ASSIGNMENT ( #33, #196, ( #60 ) ) ;
#93 = CIRCLE ( 'NONE', #118, 1.750000000000000222 ) ;
#94 = PERSON_AND_ORGANIZATION_ROLE ( 'design_supplier' ) ;
#95 = ORIENTED_EDGE ( 'NONE', *, *, #171, .F. ) ;
#96 = LOCAL_TIME ( 11, 34, 54.00000000000000000, #114 ) ;
#97 = CARTESIAN_POINT ( 'NONE',  ( 4.189777606611760026E-14, -1.469576158976823947E-15, 12.00000000000000000 ) ) ;
#98 = PERSON_AND_ORGANIZATION_ROLE ( 'design_owner' ) ;
#99 = FACE_OUTER_BOUND ( 'NONE', #124, .T. ) ;
#100 = APPROVAL_DATE_TIME ( #140, #11 ) ;
#101 = FACE_OUTER_BOUND ( 'NONE', #81, .T. ) ;
#102 = LOCAL_TIME ( 11, 34, 54.00000000000000000, #5 ) ;
#103 = APPROVAL ( #68, 'UNSPECIFIED' ) ;
#104 = VERTEX_POINT ( 'NONE', #26 ) ;
#105 = AXIS2_PLACEMENT_3D ( 'NONE', #141, #6, #67 ) ;
#106 = APPROVAL_PERSON_ORGANIZATION ( #21, #103, #123 ) ;
#107 = MANIFOLD_SOLID_BREP ( 'Corps-Déplacer/Copier1[2]', #128 ) ;
#108 = EDGE_CURVE ( 'NONE', #55, #55, #201, .T. ) ;
#109 = CARTESIAN_POINT ( 'NONE',  ( -3.741352515159839000E-31, 1.312289809829125407E-32, -1.071565949253934149E-16 ) ) ;
#110 = DIRECTION ( 'NONE',  ( -3.491481338843133355E-15, 1.224646799147353207E-16, -1.000000000000000000 ) ) ;
#111 = APPLICATION_PROTOCOL_DEFINITION ( 'international standard', 'config_control_design', 1994, #202 ) ;
#112 = APPROVAL_PERSON_ORGANIZATION ( #30, #156, #14 ) ;
#113 = FACE_OUTER_BOUND ( 'NONE', #186, .T. ) ;
#114 = COORDINATED_UNIVERSAL_TIME_OFFSET ( 1, 0, .AHEAD. ) ;
#115 = DIRECTION ( 'NONE',  ( 4.275831445896958607E-31, 1.000000000000000000, 1.224646799147353207E-16 ) ) ;
#116 = PLANE ( 'NONE',  #63 ) ;
#117 = CARTESIAN_POINT ( 'NONE',  ( 1.316288464743861717E-13, 1.749999999999994671, 37.70000000000000995 ) ) ;
#118 = AXIS2_PLACEMENT_3D ( 'NONE', #97, #139, #120 ) ;
#119 = CC_DESIGN_PERSON_AND_ORGANIZATION_ASSIGNMENT ( #71, #94, ( #60 ) ) ;
#120 = DIRECTION ( 'NONE',  ( 0.0000000000000000000, 1.000000000000000000, 0.0000000000000000000 ) ) ;
#121 = APPROVAL_DATE_TIME ( #127, #156 ) ;
#122 = DIRECTION ( 'NONE',  ( -3.491481338843133355E-15, 1.224646799147353207E-16, -1.000000000000000000 ) ) ;
#123 = APPROVAL_ROLE ( '' ) ;
#124 = EDGE_LOOP ( 'NONE', ( #95 ) ) ;
#125 = PERSON_AND_ORGANIZATION_ROLE ( 'creator' ) ;
#126 = DIRECTION ( 'NONE',  ( -3.491481338843133355E-15, 1.224646799147353207E-16, -1.000000000000000000 ) ) ;
#127 = DATE_AND_TIME ( #160, #138 ) ;
#128 = CLOSED_SHELL ( 'NONE', ( #131, #148, #153 ) ) ;
#129 = CARTESIAN_POINT ( 'NONE',  ( 1.316288464743861717E-13, -4.616918432785523447E-15, 37.70000000000000995 ) ) ;
#130 =( NAMED_UNIT ( * ) SI_UNIT ( $, .STERADIAN. ) SOLID_ANGLE_UNIT ( ) );
#131 = ADVANCED_FACE ( 'NONE', ( #47 ), #195, .T. ) ;
#132 = CARTESIAN_POINT ( 'NONE',  ( 1.326762908760390675E-13, -8.388961624800083859E-31, 38.00000000000000711 ) ) ;
#133 = CONICAL_SURFACE ( 'NONE', #9, 1.450000000000007949, 0.7853981633974425058 ) ;
#134 = CIRCLE ( 'NONE', #192, 1.749999999999999112 ) ;
#135 = EDGE_CURVE ( 'NONE', #150, #150, #134, .T. ) ;
#136 = ADVANCED_BREP_SHAPE_REPRESENTATION ( '57101', ( #38, #107, #154 ), #39 ) ;
#137 = CC_DESIGN_SECURITY_CLASSIFICATION ( #44, ( #60 ) ) ;
#138 = LOCAL_TIME ( 11, 34, 54.00000000000000000, #46 ) ;
#139 = DIRECTION ( 'NONE',  ( -3.491481338843133355E-15, 1.224646799147353207E-16, -1.000000000000000000 ) ) ;
#140 = DATE_AND_TIME ( #147, #77 ) ;
#141 = CARTESIAN_POINT ( 'NONE',  ( 4.189777606611760026E-14, 1.312289809829123491E-32, 12.00000000000000000 ) ) ;
#142 = APPROVAL_STATUS ( 'not_yet_approved' ) ;
#143 = CALENDAR_DATE ( 2021, 12, 11 ) ;
#144 = ORIENTED_EDGE ( 'NONE', *, *, #25, .F. ) ;
#145 = APPLICATION_PROTOCOL_DEFINITION ( 'international standard', 'config_control_design', 1994, #187 ) ;
#146 = FACE_OUTER_BOUND ( 'NONE', #87, .T. ) ;
#147 = CALENDAR_DATE ( 2021, 12, 11 ) ;
#148 = ADVANCED_FACE ( 'NONE', ( #146, #101 ), #48, .T. ) ;
#149 = FACE_OUTER_BOUND ( 'NONE', #203, .T. ) ;
#150 = VERTEX_POINT ( 'NONE', #117 ) ;
#151 = PRODUCT_DEFINITION ( 'UNKNOWN', '', #60, #13 ) ;
#152 = AXIS2_PLACEMENT_3D ( 'NONE', #35, #32, #167 ) ;
#153 = ADVANCED_FACE ( 'NONE', ( #113 ), #70, .T. ) ;
#154 = AXIS2_PLACEMENT_3D ( 'NONE', #74, #49, #178 ) ;
#155 = DATE_AND_TIME ( #88, #170 ) ;
#156 = APPROVAL ( #82, 'UNSPECIFIED' ) ;
#157 = FACE_OUTER_BOUND ( 'NONE', #193, .T. ) ;
#158 = SECURITY_CLASSIFICATION_LEVEL ( 'unclassified' ) ;
#159 = DIRECTION ( 'NONE',  ( -3.491481338843133355E-15, 1.224646799147353207E-16, -1.000000000000000000 ) ) ;
#160 = CALENDAR_DATE ( 2021, 12, 11 ) ;
#161 = AXIS2_PLACEMENT_3D ( 'NONE', #177, #4, #34 ) ;
#162 = FACE_OUTER_BOUND ( 'NONE', #174, .T. ) ;
#163 = DATE_AND_TIME ( #143, #102 ) ;
#164 = DIRECTION ( 'NONE',  ( -3.491481338843133355E-15, 1.224646799147353207E-16, -1.000000000000000000 ) ) ;
#165 = MECHANICAL_CONTEXT ( 'NONE', #187, 'mechanical' ) ;
#166 = CC_DESIGN_PERSON_AND_ORGANIZATION_ASSIGNMENT ( #182, #125, ( #151 ) ) ;
#167 = DIRECTION ( 'NONE',  ( -4.275831445896958607E-31, -1.000000000000000000, -1.224646799147353207E-16 ) ) ;
#168 =( LENGTH_UNIT ( ) NAMED_UNIT ( * ) SI_UNIT ( .MILLI., .METRE. ) );
#169 =( NAMED_UNIT ( * ) PLANE_ANGLE_UNIT ( ) SI_UNIT ( $, .RADIAN. ) );
#170 = LOCAL_TIME ( 11, 34, 54.00000000000000000, #190 ) ;
#171 = EDGE_CURVE ( 'NONE', #75, #75, #93, .T. ) ;
#172 = CIRCLE ( 'NONE', #43, 1.750000000000000222 ) ;
#173 = CLOSED_SHELL ( 'NONE', ( #61, #10, #176, #191 ) ) ;
#174 = EDGE_LOOP ( 'NONE', ( #189 ) ) ;
#175 = PERSON_AND_ORGANIZATION ( #57, #28 ) ;
#176 = ADVANCED_FACE ( 'NONE', ( #162, #20 ), #133, .T. ) ;
#177 = CARTESIAN_POINT ( 'NONE',  ( 0.0000000000000000000, 0.0000000000000000000, 0.0000000000000000000 ) ) ;
#178 = DIRECTION ( 'NONE',  ( 1.000000000000000000, 0.0000000000000000000, 0.0000000000000000000 ) ) ;
#179 = PERSON_AND_ORGANIZATION_ROLE ( 'classification_officer' ) ;
#180 = ORIENTED_EDGE ( 'NONE', *, *, #108, .F. ) ;
#181 = CC_DESIGN_PERSON_AND_ORGANIZATION_ASSIGNMENT ( #54, #179, ( #44 ) ) ;
#182 = PERSON_AND_ORGANIZATION ( #57, #28 ) ;
#183 = APPROVAL_ROLE ( '' ) ;
#184 = DIRECTION ( 'NONE',  ( -3.491481338843133355E-15, 1.224646799147353207E-16, -1.000000000000000000 ) ) ;
#185 = CARTESIAN_POINT ( 'NONE',  ( 0.0000000000000000000, 1.750000000000000000, 0.0000000000000000000 ) ) ;
#186 = EDGE_LOOP ( 'NONE', ( #90 ) ) ;
#187 = APPLICATION_CONTEXT ( 'configuration controlled 3d designs of mechanical parts and assemblies' ) ;
#188 = PRODUCT_DEFINITION_SHAPE ( 'NONE', 'NONE',  #151 ) ;
#189 = ORIENTED_EDGE ( 'NONE', *, *, #135, .F. ) ;
#190 = COORDINATED_UNIVERSAL_TIME_OFFSET ( 1, 0, .AHEAD. ) ;
#191 = ADVANCED_FACE ( 'NONE', ( #149 ), #116, .F. ) ;
#192 = AXIS2_PLACEMENT_3D ( 'NONE', #129, #17, #23 ) ;
#193 = EDGE_LOOP ( 'NONE', ( #41 ) ) ;
#194 = CALENDAR_DATE ( 2021, 12, 11 ) ;
#195 = PLANE ( 'NONE',  #1 ) ;
#196 = PERSON_AND_ORGANIZATION_ROLE ( 'creator' ) ;
#197 = DIRECTION ( 'NONE',  ( 0.0000000000000000000, 1.000000000000000000, 0.0000000000000000000 ) ) ;
#198 = APPROVAL_DATE_TIME ( #18, #103 ) ;
#199 = DIRECTION ( 'NONE',  ( 4.275831445896958607E-31, 1.000000000000000000, 1.224646799147353207E-16 ) ) ;
#200 = CARTESIAN_POINT ( 'NONE',  ( 1.326762908760390675E-13, 1.450000000000003286, 38.00000000000000711 ) ) ;
#201 = CIRCLE ( 'NONE', #24, 1.450000000000007949 ) ;
#202 = APPLICATION_CONTEXT ( 'configuration controlled 3d designs of mechanical parts and assemblies' ) ;
#203 = EDGE_LOOP ( 'NONE', ( #180 ) ) ;
ENDSEC;
END-ISO-10303-21;
