ISO-10303-21;
HEADER;
FILE_DESCRIPTION (( 'STEP AP203' ),
    '1' );
FILE_NAME ('57090.step',
    '2021-11-12T10:34:53',
    ( '' ),
    ( '' ),
    'SwSTEP 2.0',
    'SolidWorks 2019',
    '' );
FILE_SCHEMA (( 'CONFIG_CONTROL_DESIGN' ));
ENDSEC;

DATA;
#1 = CARTESIAN_POINT ( 'NONE',  ( 3.491481338843133355E-14, 1.124819836996391427E-32, 10.00000000000000000 ) ) ;
#2 = DIRECTION ( 'NONE',  ( -3.491481338843133355E-15, 1.224646799147353207E-16, -1.000000000000000000 ) ) ;
#3 = CARTESIAN_POINT ( 'NONE',  ( 3.491481338843133355E-14, 1.499999999999998890, 10.00000000000000000 ) ) ;
#4 = DIRECTION ( 'NONE',  ( 4.275831445896959482E-31, 1.000000000000000000, 1.224646799147353207E-16 ) ) ;
#5 = CLOSED_SHELL ( 'NONE', ( #47, #95, #31, #7 ) ) ;
#6 = MECHANICAL_CONTEXT ( 'NONE', #187, 'mechanical' ) ;
#7 = ADVANCED_FACE ( 'NONE', ( #27 ), #61, .F. ) ;
#8 = CIRCLE ( 'NONE', #23, 1.500000000000000222 ) ;
#9 = DATE_TIME_ROLE ( 'creation_date' ) ;
#10 = EDGE_LOOP ( 'NONE', ( #132 ) ) ;
#11 = CIRCLE ( 'NONE', #120, 1.500000000000000000 ) ;
#12 = DATE_AND_TIME ( #71, #199 ) ;
#13 = CALENDAR_DATE ( 2021, 12, 11 ) ;
#14 = ORIENTED_EDGE ( 'NONE', *, *, #149, .T. ) ;
#15 = DIRECTION ( 'NONE',  ( -3.491481338843133355E-15, 1.224646799147353207E-16, -1.000000000000000000 ) ) ;
#16 = CC_DESIGN_DATE_AND_TIME_ASSIGNMENT ( #163, #9, ( #52 ) ) ;
#17 = DIRECTION ( 'NONE',  ( 0.0000000000000000000, 1.000000000000000000, 0.0000000000000000000 ) ) ;
#18 = CARTESIAN_POINT ( 'NONE',  ( 3.491481338843133355E-14, 1.499999999999998890, 10.00000000000000000 ) ) ;
#19 = LOCAL_TIME ( 11, 34, 53.00000000000000000, #83 ) ;
#20 = FACE_OUTER_BOUND ( 'NONE', #118, .T. ) ;
#21 = DIRECTION ( 'NONE',  ( -3.491481338843133355E-15, 1.224646799147353207E-16, -1.000000000000000000 ) ) ;
#22 =( NAMED_UNIT ( * ) SI_UNIT ( $, .STERADIAN. ) SOLID_ANGLE_UNIT ( ) );
#23 = AXIS2_PLACEMENT_3D ( 'NONE', #69, #157, #53 ) ;
#24 = CC_DESIGN_PERSON_AND_ORGANIZATION_ASSIGNMENT ( #26, #146, ( #104 ) ) ;
#25 = SECURITY_CLASSIFICATION_LEVEL ( 'unclassified' ) ;
#26 = PERSON_AND_ORGANIZATION ( #113, #167 ) ;
#27 = FACE_OUTER_BOUND ( 'NONE', #85, .T. ) ;
#28 = APPROVAL_PERSON_ORGANIZATION ( #60, #142, #36 ) ;
#29 = COORDINATED_UNIVERSAL_TIME_OFFSET ( 1, 0, .AHEAD. ) ;
#30 = PLANE ( 'NONE',  #57 ) ;
#31 = ADVANCED_FACE ( 'NONE', ( #151, #168 ), #33, .T. ) ;
#32 = EDGE_LOOP ( 'NONE', ( #72 ) ) ;
#33 = CONICAL_SURFACE ( 'NONE', #155, 1.200000000000004174, 0.7853981633974425058 ) ;
#34 = DIRECTION ( 'NONE',  ( -4.275831445896958607E-31, -1.000000000000000000, -1.224646799147353207E-16 ) ) ;
#35 = CARTESIAN_POINT ( 'NONE',  ( 0.0000000000000000000, 0.0000000000000000000, 0.0000000000000000000 ) ) ;
#36 = APPROVAL_ROLE ( '' ) ;
#37 = CLOSED_SHELL ( 'NONE', ( #177, #140, #186 ) ) ;
#38 = DATE_AND_TIME ( #159, #147 ) ;
#39 = DIRECTION ( 'NONE',  ( -3.491481338843133355E-15, 1.224646799147353207E-16, -1.000000000000000000 ) ) ;
#40 = ADVANCED_BREP_SHAPE_REPRESENTATION ( '57090', ( #122, #196, #80 ), #73 ) ;
#41 = LOCAL_TIME ( 11, 34, 53.00000000000000000, #87 ) ;
#42 = CIRCLE ( 'NONE', #152, 1.200000000000004174 ) ;
#43 = PERSON_AND_ORGANIZATION_ROLE ( 'creator' ) ;
#44 = PERSON_AND_ORGANIZATION ( #113, #167 ) ;
#45 = DATE_AND_TIME ( #96, #100 ) ;
#46 = DIRECTION ( 'NONE',  ( 4.275831445896958607E-31, 1.000000000000000000, 1.224646799147353207E-16 ) ) ;
#47 = ADVANCED_FACE ( 'NONE', ( #135 ), #30, .F. ) ;
#48 = ORIENTED_EDGE ( 'NONE', *, *, #110, .T. ) ;
#49 = EDGE_LOOP ( 'NONE', ( #201 ) ) ;
#50 = CC_DESIGN_APPROVAL ( #66, ( #52 ) ) ;
#51 = FACE_OUTER_BOUND ( 'NONE', #150, .T. ) ;
#52 = PRODUCT_DEFINITION ( 'UNKNOWN', '', #76, #143 ) ;
#53 = DIRECTION ( 'NONE',  ( 0.0000000000000000000, 1.000000000000000000, 0.0000000000000000000 ) ) ;
#54 = CARTESIAN_POINT ( 'NONE',  ( 3.491481338843133355E-14, 1.124819836996391427E-32, 10.00000000000000000 ) ) ;
#55 = PERSON_AND_ORGANIZATION ( #113, #167 ) ;
#56 = PERSON_AND_ORGANIZATION ( #113, #167 ) ;
#57 = AXIS2_PLACEMENT_3D ( 'NONE', #1, #88, #171 ) ;
#58 = CARTESIAN_POINT ( 'NONE',  ( 1.326762908760390423E-13, 1.199999999999999734, 38.00000000000000000 ) ) ;
#59 = APPROVAL_PERSON_ORGANIZATION ( #55, #66, #179 ) ;
#60 = PERSON_AND_ORGANIZATION ( #113, #167 ) ;
#61 = PLANE ( 'NONE',  #183 ) ;
#62 = CIRCLE ( 'NONE', #144, 1.500000000000002442 ) ;
#63 = DIRECTION ( 'NONE',  ( -3.491481338843133355E-15, 1.224646799147353207E-16, -1.000000000000000000 ) ) ;
#64 = VERTEX_POINT ( 'NONE', #185 ) ;
#65 = FACE_OUTER_BOUND ( 'NONE', #10, .T. ) ;
#66 = APPROVAL ( #162, 'UNSPECIFIED' ) ;
#67 = DIRECTION ( 'NONE',  ( 0.0000000000000000000, 1.000000000000000000, 0.0000000000000000000 ) ) ;
#68 = AXIS2_PLACEMENT_3D ( 'NONE', #121, #79, #141 ) ;
#69 = CARTESIAN_POINT ( 'NONE',  ( 3.491481338843133355E-14, -1.224646799147353256E-15, 10.00000000000000000 ) ) ;
#70 = APPLICATION_PROTOCOL_DEFINITION ( 'international standard', 'config_control_design', 1994, #126 ) ;
#71 = CALENDAR_DATE ( 2021, 12, 11 ) ;
#72 = ORIENTED_EDGE ( 'NONE', *, *, #116, .F. ) ;
#73 =( GEOMETRIC_REPRESENTATION_CONTEXT ( 3 ) GLOBAL_UNCERTAINTY_ASSIGNED_CONTEXT ( ( #128 ) ) GLOBAL_UNIT_ASSIGNED_CONTEXT ( ( #112, #194, #22 ) ) REPRESENTATION_CONTEXT ( 'NONE', 'WORKASPACE' ) );
#74 = DATE_AND_TIME ( #13, #19 ) ;
#75 = VERTEX_POINT ( 'NONE', #3 ) ;
#76 = PRODUCT_DEFINITION_FORMATION_WITH_SPECIFIED_SOURCE ( 'ANY', '', #109, .NOT_KNOWN. ) ;
#77 = CARTESIAN_POINT ( 'NONE',  ( -6.413747168845438786E-31, 2.249639673992786412E-32, -1.836970198721029934E-16 ) ) ;
#78 = EDGE_CURVE ( 'NONE', #191, #191, #62, .T. ) ;
#79 = DIRECTION ( 'NONE',  ( -3.491481338843133355E-15, 1.224646799147353207E-16, -1.000000000000000000 ) ) ;
#80 = AXIS2_PLACEMENT_3D ( 'NONE', #193, #198, #176 ) ;
#81 = EDGE_CURVE ( 'NONE', #154, #154, #138, .T. ) ;
#82 = APPLICATION_PROTOCOL_DEFINITION ( 'international standard', 'config_control_design', 1994, #187 ) ;
#83 = COORDINATED_UNIVERSAL_TIME_OFFSET ( 1, 0, .AHEAD. ) ;
#84 = PERSON_AND_ORGANIZATION_ROLE ( 'design_supplier' ) ;
#85 = EDGE_LOOP ( 'NONE', ( #98 ) ) ;
#86 = CC_DESIGN_SECURITY_CLASSIFICATION ( #104, ( #76 ) ) ;
#87 = COORDINATED_UNIVERSAL_TIME_OFFSET ( 1, 0, .AHEAD. ) ;
#88 = DIRECTION ( 'NONE',  ( 3.491481338843133355E-15, -1.224646799147353207E-16, 1.000000000000000000 ) ) ;
#89 = CARTESIAN_POINT ( 'NONE',  ( 1.326762908760390423E-13, -4.653657836759941941E-15, 38.00000000000000000 ) ) ;
#90 = CC_DESIGN_APPROVAL ( #197, ( #76 ) ) ;
#91 = DIRECTION ( 'NONE',  ( 3.491481338843133355E-15, -1.224646799147353207E-16, 1.000000000000000000 ) ) ;
#92 = FACE_OUTER_BOUND ( 'NONE', #169, .T. ) ;
#93 = PRODUCT_DEFINITION_SHAPE ( 'NONE', 'NONE',  #52 ) ;
#94 = DIRECTION ( 'NONE',  ( 4.275831445896959482E-31, 1.000000000000000000, 1.224646799147353207E-16 ) ) ;
#95 = ADVANCED_FACE ( 'NONE', ( #106, #92 ), #189, .T. ) ;
#96 = CALENDAR_DATE ( 2021, 12, 11 ) ;
#97 = PERSON_AND_ORGANIZATION ( #113, #167 ) ;
#98 = ORIENTED_EDGE ( 'NONE', *, *, #149, .F. ) ;
#99 = PERSON_AND_ORGANIZATION ( #113, #167 ) ;
#100 = LOCAL_TIME ( 11, 34, 53.00000000000000000, #145 ) ;
#101 = CC_DESIGN_PERSON_AND_ORGANIZATION_ASSIGNMENT ( #44, #84, ( #76 ) ) ;
#102 = ORIENTED_EDGE ( 'NONE', *, *, #78, .T. ) ;
#103 = EDGE_LOOP ( 'NONE', ( #14 ) ) ;
#104 = SECURITY_CLASSIFICATION ( '', '', #25 ) ;
#105 = PLANE ( 'NONE',  #68 ) ;
#106 = FACE_OUTER_BOUND ( 'NONE', #117, .T. ) ;
#107 = CARTESIAN_POINT ( 'NONE',  ( 1.316288464743861212E-13, -4.616918432785521081E-15, 37.69999999999999574 ) ) ;
#108 = DIRECTION ( 'NONE',  ( 4.275831445896958607E-31, 1.000000000000000000, 1.224646799147353207E-16 ) ) ;
#109 = PRODUCT ( '57090', '57090', '', ( #6 ) ) ;
#110 = EDGE_CURVE ( 'NONE', #75, #75, #8, .T. ) ;
#111 = PRODUCT_RELATED_PRODUCT_CATEGORY ( 'detail', '', ( #109 ) ) ;
#112 =( LENGTH_UNIT ( ) NAMED_UNIT ( * ) SI_UNIT ( .MILLI., .METRE. ) );
#113 = PERSON ( 'UNSPECIFIED', 'UNSPECIFIED', 'UNSPECIFIED', ('UNSPECIFIED'), ('UNSPECIFIED'), ('UNSPECIFIED') ) ;
#114 = APPROVAL_STATUS ( 'not_yet_approved' ) ;
#115 = DIRECTION ( 'NONE',  ( -3.491481338843133355E-15, 1.224646799147353207E-16, -1.000000000000000000 ) ) ;
#116 = EDGE_CURVE ( 'NONE', #64, #64, #11, .T. ) ;
#117 = EDGE_LOOP ( 'NONE', ( #102 ) ) ;
#118 = EDGE_LOOP ( 'NONE', ( #48 ) ) ;
#119 = DIRECTION ( 'NONE',  ( -3.491481338843133355E-15, 1.224646799147353207E-16, -1.000000000000000000 ) ) ;
#120 = AXIS2_PLACEMENT_3D ( 'NONE', #77, #39, #4 ) ;
#121 = CARTESIAN_POINT ( 'NONE',  ( -3.206873584422719393E-31, 1.124819836996393206E-32, -9.184850993605149670E-17 ) ) ;
#122 = MANIFOLD_SOLID_BREP ( 'Corps-Déplacer/Copier1[1]', #5 ) ;
#123 = FACE_OUTER_BOUND ( 'NONE', #32, .T. ) ;
#124 = DIRECTION ( 'NONE',  ( -3.491481338843133355E-15, 1.224646799147353207E-16, -1.000000000000000000 ) ) ;
#125 = CARTESIAN_POINT ( 'NONE',  ( 0.0000000000000000000, 0.0000000000000000000, 0.0000000000000000000 ) ) ;
#126 = APPLICATION_CONTEXT ( 'configuration controlled 3d designs of mechanical parts and assemblies' ) ;
#127 = VERTEX_POINT ( 'NONE', #58 ) ;
#128 = UNCERTAINTY_MEASURE_WITH_UNIT (LENGTH_MEASURE( 1.000000000000000082E-05 ), #112, 'distance_accuracy_value', 'NONE');
#129 = DATE_TIME_ROLE ( 'classification_date' ) ;
#130 = APPROVAL_PERSON_ORGANIZATION ( #97, #197, #131 ) ;
#131 = APPROVAL_ROLE ( '' ) ;
#132 = ORIENTED_EDGE ( 'NONE', *, *, #110, .F. ) ;
#133 = CC_DESIGN_PERSON_AND_ORGANIZATION_ASSIGNMENT ( #99, #43, ( #52 ) ) ;
#134 = CC_DESIGN_DATE_AND_TIME_ASSIGNMENT ( #74, #129, ( #104 ) ) ;
#135 = FACE_OUTER_BOUND ( 'NONE', #49, .T. ) ;
#136 = DIRECTION ( 'NONE',  ( 0.0000000000000000000, 1.000000000000000000, 0.0000000000000000000 ) ) ;
#137 = CARTESIAN_POINT ( 'NONE',  ( 3.491481338843133355E-14, -1.224646799147353256E-15, 10.00000000000000000 ) ) ;
#138 = CIRCLE ( 'NONE', #181, 1.500000000000000222 ) ;
#139 = CYLINDRICAL_SURFACE ( 'NONE', #173, 1.500000000000000000 ) ;
#140 = ADVANCED_FACE ( 'NONE', ( #20, #123 ), #139, .T. ) ;
#141 = DIRECTION ( 'NONE',  ( 4.275831445896958607E-31, 1.000000000000000000, 1.224646799147353207E-16 ) ) ;
#142 = APPROVAL ( #114, 'UNSPECIFIED' ) ;
#143 = DESIGN_CONTEXT ( 'detailed design', #126, 'design' ) ;
#144 = AXIS2_PLACEMENT_3D ( 'NONE', #107, #63, #136 ) ;
#145 = COORDINATED_UNIVERSAL_TIME_OFFSET ( 1, 0, .AHEAD. ) ;
#146 = PERSON_AND_ORGANIZATION_ROLE ( 'classification_officer' ) ;
#147 = LOCAL_TIME ( 11, 34, 53.00000000000000000, #192 ) ;
#148 = APPROVAL_STATUS ( 'not_yet_approved' ) ;
#149 = EDGE_CURVE ( 'NONE', #127, #127, #42, .T. ) ;
#150 = EDGE_LOOP ( 'NONE', ( #165 ) ) ;
#151 = FACE_OUTER_BOUND ( 'NONE', #153, .T. ) ;
#152 = AXIS2_PLACEMENT_3D ( 'NONE', #160, #119, #184 ) ;
#153 = EDGE_LOOP ( 'NONE', ( #203 ) ) ;
#154 = VERTEX_POINT ( 'NONE', #18 ) ;
#155 = AXIS2_PLACEMENT_3D ( 'NONE', #89, #15, #17 ) ;
#156 = APPROVAL_DATE_TIME ( #38, #142 ) ;
#157 = DIRECTION ( 'NONE',  ( -3.491481338843133355E-15, 1.224646799147353207E-16, -1.000000000000000000 ) ) ;
#158 = CC_DESIGN_PERSON_AND_ORGANIZATION_ASSIGNMENT ( #200, #164, ( #76 ) ) ;
#159 = CALENDAR_DATE ( 2021, 12, 11 ) ;
#160 = CARTESIAN_POINT ( 'NONE',  ( 1.326762908760390423E-13, -4.653657836759941941E-15, 38.00000000000000000 ) ) ;
#161 = AXIS2_PLACEMENT_3D ( 'NONE', #54, #91, #34 ) ;
#162 = APPROVAL_STATUS ( 'not_yet_approved' ) ;
#163 = DATE_AND_TIME ( #166, #41 ) ;
#164 = PERSON_AND_ORGANIZATION_ROLE ( 'creator' ) ;
#165 = ORIENTED_EDGE ( 'NONE', *, *, #116, .T. ) ;
#166 = CALENDAR_DATE ( 2021, 12, 11 ) ;
#167 = ORGANIZATION ( 'UNSPECIFIED', 'UNSPECIFIED', '' ) ;
#168 = FACE_BOUND ( 'NONE', #103, .T. ) ;
#169 = EDGE_LOOP ( 'NONE', ( #182 ) ) ;
#170 = AXIS2_PLACEMENT_3D ( 'NONE', #35, #124, #108 ) ;
#171 = DIRECTION ( 'NONE',  ( -4.275831445896958607E-31, -1.000000000000000000, -1.224646799147353207E-16 ) ) ;
#172 = CC_DESIGN_PERSON_AND_ORGANIZATION_ASSIGNMENT ( #56, #195, ( #109 ) ) ;
#173 = AXIS2_PLACEMENT_3D ( 'NONE', #125, #21, #94 ) ;
#174 = CARTESIAN_POINT ( 'NONE',  ( 1.316288464743861212E-13, 1.499999999999997780, 37.69999999999999574 ) ) ;
#175 = CC_DESIGN_APPROVAL ( #142, ( #104 ) ) ;
#176 = DIRECTION ( 'NONE',  ( 1.000000000000000000, 0.0000000000000000000, 0.0000000000000000000 ) ) ;
#177 = ADVANCED_FACE ( 'NONE', ( #51 ), #105, .T. ) ;
#178 = APPROVAL_DATE_TIME ( #45, #66 ) ;
#179 = APPROVAL_ROLE ( '' ) ;
#180 = CARTESIAN_POINT ( 'NONE',  ( 1.326762908760390423E-13, 8.998558695971110067E-33, 38.00000000000000000 ) ) ;
#181 = AXIS2_PLACEMENT_3D ( 'NONE', #137, #2, #67 ) ;
#182 = ORIENTED_EDGE ( 'NONE', *, *, #81, .F. ) ;
#183 = AXIS2_PLACEMENT_3D ( 'NONE', #180, #115, #46 ) ;
#184 = DIRECTION ( 'NONE',  ( 0.0000000000000000000, 1.000000000000000000, 0.0000000000000000000 ) ) ;
#185 = CARTESIAN_POINT ( 'NONE',  ( 0.0000000000000000000, 1.500000000000000000, 0.0000000000000000000 ) ) ;
#186 = ADVANCED_FACE ( 'NONE', ( #65 ), #188, .T. ) ;
#187 = APPLICATION_CONTEXT ( 'configuration controlled 3d designs of mechanical parts and assemblies' ) ;
#188 = PLANE ( 'NONE',  #161 ) ;
#189 = CYLINDRICAL_SURFACE ( 'NONE', #170, 1.500000000000001332 ) ;
#190 = SHAPE_DEFINITION_REPRESENTATION ( #93, #40 ) ;
#191 = VERTEX_POINT ( 'NONE', #174 ) ;
#192 = COORDINATED_UNIVERSAL_TIME_OFFSET ( 1, 0, .AHEAD. ) ;
#193 = CARTESIAN_POINT ( 'NONE',  ( 0.0000000000000000000, 0.0000000000000000000, 0.0000000000000000000 ) ) ;
#194 =( NAMED_UNIT ( * ) PLANE_ANGLE_UNIT ( ) SI_UNIT ( $, .RADIAN. ) );
#195 = PERSON_AND_ORGANIZATION_ROLE ( 'design_owner' ) ;
#196 = MANIFOLD_SOLID_BREP ( 'Corps-Déplacer/Copier1[2]', #37 ) ;
#197 = APPROVAL ( #148, 'UNSPECIFIED' ) ;
#198 = DIRECTION ( 'NONE',  ( 0.0000000000000000000, 0.0000000000000000000, 1.000000000000000000 ) ) ;
#199 = LOCAL_TIME ( 11, 34, 53.00000000000000000, #29 ) ;
#200 = PERSON_AND_ORGANIZATION ( #113, #167 ) ;
#201 = ORIENTED_EDGE ( 'NONE', *, *, #81, .T. ) ;
#202 = APPROVAL_DATE_TIME ( #12, #197 ) ;
#203 = ORIENTED_EDGE ( 'NONE', *, *, #78, .F. ) ;
ENDSEC;
END-ISO-10303-21;
