ISO-10303-21;
HEADER;
FILE_DESCRIPTION (( 'STEP AP203' ),
    '1' );
FILE_NAME ('57089.step',
    '2021-11-12T10:34:53',
    ( '' ),
    ( '' ),
    'SwSTEP 2.0',
    'SolidWorks 2019',
    '' );
FILE_SCHEMA (( 'CONFIG_CONTROL_DESIGN' ));
ENDSEC;

DATA;
#1 = CARTESIAN_POINT ( 'NONE',  ( 1.106799584413273463E-13, 1.249999999999996003, 31.70000000000000639 ) ) ;
#2 = DATE_AND_TIME ( #92, #39 ) ;
#3 = CALENDAR_DATE ( 2021, 12, 11 ) ;
#4 = ORIENTED_EDGE ( 'NONE', *, *, #67, .F. ) ;
#5 = EDGE_LOOP ( 'NONE', ( #75 ) ) ;
#6 = DATE_AND_TIME ( #3, #150 ) ;
#7 = DIRECTION ( 'NONE',  ( -4.275831445896959482E-31, -1.000000000000000000, -1.224646799147353454E-16 ) ) ;
#8 = EDGE_CURVE ( 'NONE', #133, #133, #193, .T. ) ;
#9 = FACE_OUTER_BOUND ( 'NONE', #89, .T. ) ;
#10 = LOCAL_TIME ( 11, 34, 53.00000000000000000, #23 ) ;
#11 = APPLICATION_CONTEXT ( 'configuration controlled 3d designs of mechanical parts and assemblies' ) ;
#12 = DIRECTION ( 'NONE',  ( 4.275831445896959482E-31, 1.000000000000000000, 1.224646799147353454E-16 ) ) ;
#13 = FACE_OUTER_BOUND ( 'NONE', #125, .T. ) ;
#14 = CC_DESIGN_DATE_AND_TIME_ASSIGNMENT ( #2, #40, ( #78 ) ) ;
#15 = PRODUCT_RELATED_PRODUCT_CATEGORY ( 'detail', '', ( #95 ) ) ;
#16 =( LENGTH_UNIT ( ) NAMED_UNIT ( * ) SI_UNIT ( .MILLI., .METRE. ) );
#17 = PLANE ( 'NONE',  #127 ) ;
#18 = DATE_AND_TIME ( #162, #195 ) ;
#19 = EDGE_LOOP ( 'NONE', ( #173 ) ) ;
#20 = LOCAL_TIME ( 11, 34, 53.00000000000000000, #37 ) ;
#21 = AXIS2_PLACEMENT_3D ( 'NONE', #44, #132, #59 ) ;
#22 = SECURITY_CLASSIFICATION_LEVEL ( 'unclassified' ) ;
#23 = COORDINATED_UNIVERSAL_TIME_OFFSET ( 1, 0, .AHEAD. ) ;
#24 = APPROVAL_PERSON_ORGANIZATION ( #77, #55, #108 ) ;
#25 = DIRECTION ( 'NONE',  ( 0.0000000000000000000, 1.000000000000000000, 0.0000000000000000000 ) ) ;
#26 = CC_DESIGN_PERSON_AND_ORGANIZATION_ASSIGNMENT ( #191, #79, ( #176 ) ) ;
#27 = DIRECTION ( 'NONE',  ( -3.491481338843133355E-15, 1.224646799147353454E-16, -1.000000000000000000 ) ) ;
#28 = AXIS2_PLACEMENT_3D ( 'NONE', #42, #98, #186 ) ;
#29 = DIRECTION ( 'NONE',  ( 4.275831445896959482E-31, 1.000000000000000000, 1.224646799147353454E-16 ) ) ;
#30 = CC_DESIGN_SECURITY_CLASSIFICATION ( #80, ( #176 ) ) ;
#31 = DIRECTION ( 'NONE',  ( 1.000000000000000000, 0.0000000000000000000, 0.0000000000000000000 ) ) ;
#32 = ADVANCED_FACE ( 'NONE', ( #94 ), #17, .F. ) ;
#33 = VERTEX_POINT ( 'NONE', #87 ) ;
#34 = DIRECTION ( 'NONE',  ( -3.491481338843133355E-15, 1.224646799147353454E-16, -1.000000000000000000 ) ) ;
#35 = CARTESIAN_POINT ( 'NONE',  ( 1.106799584413273463E-13, -3.882130353297111770E-15, 31.70000000000000639 ) ) ;
#36 = DATE_TIME_ROLE ( 'classification_date' ) ;
#37 = COORDINATED_UNIVERSAL_TIME_OFFSET ( 1, 0, .AHEAD. ) ;
#38 = DIRECTION ( 'NONE',  ( 4.275831445896958607E-31, 1.000000000000000000, 1.224646799147353454E-16 ) ) ;
#39 = LOCAL_TIME ( 11, 34, 53.00000000000000000, #159 ) ;
#40 = DATE_TIME_ROLE ( 'creation_date' ) ;
#41 = CARTESIAN_POINT ( 'NONE',  ( -2.672394653685599348E-31, 9.373498641636614154E-33, -7.654042494670959086E-17 ) ) ;
#42 = CARTESIAN_POINT ( 'NONE',  ( 2.793185071074506684E-14, 9.373498641636593628E-33, 8.000000000000000000 ) ) ;
#43 = CIRCLE ( 'NONE', #128, 0.9500000000000033973 ) ;
#44 = CARTESIAN_POINT ( 'NONE',  ( 1.117274028429802674E-13, -3.918869757271531052E-15, 32.00000000000000000 ) ) ;
#45 = DIRECTION ( 'NONE',  ( 0.0000000000000000000, 1.000000000000000000, 0.0000000000000000000 ) ) ;
#46 = APPROVAL ( #64, 'UNSPECIFIED' ) ;
#47 = ORGANIZATION ( 'UNSPECIFIED', 'UNSPECIFIED', '' ) ;
#48 = PERSON_AND_ORGANIZATION ( #130, #47 ) ;
#49 = FACE_BOUND ( 'NONE', #188, .T. ) ;
#50 = PERSON_AND_ORGANIZATION ( #130, #47 ) ;
#51 = ORIENTED_EDGE ( 'NONE', *, *, #97, .T. ) ;
#52 = CARTESIAN_POINT ( 'NONE',  ( -5.344789307371198696E-31, 1.874699728327322831E-32, -1.530808498934191817E-16 ) ) ;
#53 = EDGE_CURVE ( 'NONE', #116, #116, #196, .T. ) ;
#54 = AXIS2_PLACEMENT_3D ( 'NONE', #41, #27, #12 ) ;
#55 = APPROVAL ( #88, 'UNSPECIFIED' ) ;
#56 = CARTESIAN_POINT ( 'NONE',  ( 2.793185071074506684E-14, -9.797174393178827630E-16, 8.000000000000000000 ) ) ;
#57 = DIRECTION ( 'NONE',  ( 4.275831445896958607E-31, 1.000000000000000000, 1.224646799147353454E-16 ) ) ;
#58 = CARTESIAN_POINT ( 'NONE',  ( 0.0000000000000000000, 0.0000000000000000000, 0.0000000000000000000 ) ) ;
#59 = DIRECTION ( 'NONE',  ( 0.0000000000000000000, 1.000000000000000000, 0.0000000000000000000 ) ) ;
#60 = CARTESIAN_POINT ( 'NONE',  ( 2.793185071074506684E-14, 9.373498641636593628E-33, 8.000000000000000000 ) ) ;
#61 =( NAMED_UNIT ( * ) PLANE_ANGLE_UNIT ( ) SI_UNIT ( $, .RADIAN. ) );
#62 = DIRECTION ( 'NONE',  ( 3.491481338843133355E-15, -1.224646799147353454E-16, 1.000000000000000000 ) ) ;
#63 = COORDINATED_UNIVERSAL_TIME_OFFSET ( 1, 0, .AHEAD. ) ;
#64 = APPROVAL_STATUS ( 'not_yet_approved' ) ;
#65 = APPROVAL_ROLE ( '' ) ;
#66 = EDGE_LOOP ( 'NONE', ( #141 ) ) ;
#67 = EDGE_CURVE ( 'NONE', #155, #155, #43, .T. ) ;
#68 = CALENDAR_DATE ( 2021, 12, 11 ) ;
#69 = CC_DESIGN_APPROVAL ( #55, ( #80 ) ) ;
#70 = AXIS2_PLACEMENT_3D ( 'NONE', #137, #34, #29 ) ;
#71 = FACE_OUTER_BOUND ( 'NONE', #156, .T. ) ;
#72 = CARTESIAN_POINT ( 'NONE',  ( 1.117274028429802674E-13, -3.918869757271531052E-15, 32.00000000000000000 ) ) ;
#73 = CARTESIAN_POINT ( 'NONE',  ( 1.117274028429802674E-13, 0.9499999999999995115, 32.00000000000000000 ) ) ;
#74 = PERSON_AND_ORGANIZATION ( #130, #47 ) ;
#75 = ORIENTED_EDGE ( 'NONE', *, *, #8, .T. ) ;
#76 = COORDINATED_UNIVERSAL_TIME_OFFSET ( 1, 0, .AHEAD. ) ;
#77 = PERSON_AND_ORGANIZATION ( #130, #47 ) ;
#78 = PRODUCT_DEFINITION ( 'UNKNOWN', '', #176, #197 ) ;
#79 = PERSON_AND_ORGANIZATION_ROLE ( 'creator' ) ;
#80 = SECURITY_CLASSIFICATION ( '', '', #22 ) ;
#81 = CYLINDRICAL_SURFACE ( 'NONE', #115, 1.250000000000000000 ) ;
#82 = CC_DESIGN_PERSON_AND_ORGANIZATION_ASSIGNMENT ( #50, #139, ( #78 ) ) ;
#83 = APPLICATION_PROTOCOL_DEFINITION ( 'international standard', 'config_control_design', 1994, #157 ) ;
#84 = DIRECTION ( 'NONE',  ( 0.0000000000000000000, 1.000000000000000000, 0.0000000000000000000 ) ) ;
#85 = CARTESIAN_POINT ( 'NONE',  ( 2.793185071074506684E-14, 1.249999999999998890, 8.000000000000000000 ) ) ;
#86 = AXIS2_PLACEMENT_3D ( 'NONE', #58, #168, #31 ) ;
#87 = CARTESIAN_POINT ( 'NONE',  ( 2.793185071074506684E-14, 1.249999999999998890, 8.000000000000000000 ) ) ;
#88 = APPROVAL_STATUS ( 'not_yet_approved' ) ;
#89 = EDGE_LOOP ( 'NONE', ( #51 ) ) ;
#90 = ADVANCED_BREP_SHAPE_REPRESENTATION ( '57089', ( #201, #200, #86 ), #129 ) ;
#91 = CC_DESIGN_DATE_AND_TIME_ASSIGNMENT ( #164, #36, ( #80 ) ) ;
#92 = CALENDAR_DATE ( 2021, 12, 11 ) ;
#93 = AXIS2_PLACEMENT_3D ( 'NONE', #56, #113, #131 ) ;
#94 = FACE_OUTER_BOUND ( 'NONE', #19, .T. ) ;
#95 = PRODUCT ( '57089', '57089', '', ( #152 ) ) ;
#96 = APPROVAL_DATE_TIME ( #18, #46 ) ;
#97 = EDGE_CURVE ( 'NONE', #33, #33, #158, .T. ) ;
#98 = DIRECTION ( 'NONE',  ( 3.491481338843133355E-15, -1.224646799147353454E-16, 1.000000000000000000 ) ) ;
#99 = CIRCLE ( 'NONE', #148, 1.249999999999999778 ) ;
#100 = PLANE ( 'NONE',  #70 ) ;
#101 = AXIS2_PLACEMENT_3D ( 'NONE', #135, #114, #84 ) ;
#102 = FACE_OUTER_BOUND ( 'NONE', #66, .T. ) ;
#103 = ADVANCED_FACE ( 'NONE', ( #179 ), #153, .T. ) ;
#104 = FACE_OUTER_BOUND ( 'NONE', #160, .T. ) ;
#105 = ORIENTED_EDGE ( 'NONE', *, *, #97, .F. ) ;
#106 = PERSON_AND_ORGANIZATION ( #130, #47 ) ;
#107 = ORIENTED_EDGE ( 'NONE', *, *, #67, .T. ) ;
#108 = APPROVAL_ROLE ( '' ) ;
#109 = PERSON_AND_ORGANIZATION_ROLE ( 'design_supplier' ) ;
#110 = PRODUCT_DEFINITION_SHAPE ( 'NONE', 'NONE',  #78 ) ;
#111 = CARTESIAN_POINT ( 'NONE',  ( 0.0000000000000000000, 0.0000000000000000000, 0.0000000000000000000 ) ) ;
#112 = ADVANCED_FACE ( 'NONE', ( #9, #199 ), #81, .T. ) ;
#113 = DIRECTION ( 'NONE',  ( -3.491481338843133355E-15, 1.224646799147353454E-16, -1.000000000000000000 ) ) ;
#114 = DIRECTION ( 'NONE',  ( -3.491481338843133355E-15, 1.224646799147353454E-16, -1.000000000000000000 ) ) ;
#115 = AXIS2_PLACEMENT_3D ( 'NONE', #111, #178, #149 ) ;
#116 = VERTEX_POINT ( 'NONE', #85 ) ;
#117 = VERTEX_POINT ( 'NONE', #1 ) ;
#118 = APPROVAL ( #189, 'UNSPECIFIED' ) ;
#119 = CC_DESIGN_APPROVAL ( #118, ( #78 ) ) ;
#120 = FACE_OUTER_BOUND ( 'NONE', #172, .T. ) ;
#121 = CYLINDRICAL_SURFACE ( 'NONE', #167, 1.249999999999999778 ) ;
#122 = PERSON_AND_ORGANIZATION ( #130, #47 ) ;
#123 = APPROVAL_DATE_TIME ( #6, #55 ) ;
#124 = APPROVAL_ROLE ( '' ) ;
#125 = EDGE_LOOP ( 'NONE', ( #161 ) ) ;
#126 = CALENDAR_DATE ( 2021, 12, 11 ) ;
#127 = AXIS2_PLACEMENT_3D ( 'NONE', #60, #62, #7 ) ;
#128 = AXIS2_PLACEMENT_3D ( 'NONE', #72, #203, #25 ) ;
#129 =( GEOMETRIC_REPRESENTATION_CONTEXT ( 3 ) GLOBAL_UNCERTAINTY_ASSIGNED_CONTEXT ( ( #165 ) ) GLOBAL_UNIT_ASSIGNED_CONTEXT ( ( #16, #61, #202 ) ) REPRESENTATION_CONTEXT ( 'NONE', 'WORKASPACE' ) );
#130 = PERSON ( 'UNSPECIFIED', 'UNSPECIFIED', 'UNSPECIFIED', ('UNSPECIFIED'), ('UNSPECIFIED'), ('UNSPECIFIED') ) ;
#131 = DIRECTION ( 'NONE',  ( 0.0000000000000000000, 1.000000000000000000, 0.0000000000000000000 ) ) ;
#132 = DIRECTION ( 'NONE',  ( -3.491481338843133355E-15, 1.224646799147353454E-16, -1.000000000000000000 ) ) ;
#133 = VERTEX_POINT ( 'NONE', #183 ) ;
#134 = ADVANCED_FACE ( 'NONE', ( #71 ), #180, .T. ) ;
#135 = CARTESIAN_POINT ( 'NONE',  ( 2.793185071074506684E-14, -9.797174393178827630E-16, 8.000000000000000000 ) ) ;
#136 = CLOSED_SHELL ( 'NONE', ( #32, #145, #181, #198 ) ) ;
#137 = CARTESIAN_POINT ( 'NONE',  ( 1.117274028429802674E-13, 7.123858967643793531E-33, 32.00000000000000000 ) ) ;
#138 = ORIENTED_EDGE ( 'NONE', *, *, #8, .F. ) ;
#139 = PERSON_AND_ORGANIZATION_ROLE ( 'creator' ) ;
#140 = PERSON_AND_ORGANIZATION_ROLE ( 'classification_officer' ) ;
#141 = ORIENTED_EDGE ( 'NONE', *, *, #151, .T. ) ;
#142 = APPROVAL_PERSON_ORGANIZATION ( #122, #46, #65 ) ;
#143 = ORIENTED_EDGE ( 'NONE', *, *, #53, .F. ) ;
#144 = EDGE_LOOP ( 'NONE', ( #138 ) ) ;
#145 = ADVANCED_FACE ( 'NONE', ( #102, #104 ), #121, .T. ) ;
#146 = DATE_AND_TIME ( #68, #10 ) ;
#147 = AXIS2_PLACEMENT_3D ( 'NONE', #52, #175, #38 ) ;
#148 = AXIS2_PLACEMENT_3D ( 'NONE', #35, #169, #45 ) ;
#149 = DIRECTION ( 'NONE',  ( 4.275831445896958607E-31, 1.000000000000000000, 1.224646799147353454E-16 ) ) ;
#150 = LOCAL_TIME ( 11, 34, 53.00000000000000000, #76 ) ;
#151 = EDGE_CURVE ( 'NONE', #117, #117, #99, .T. ) ;
#152 = MECHANICAL_CONTEXT ( 'NONE', #157, 'mechanical' ) ;
#153 = PLANE ( 'NONE',  #54 ) ;
#154 = PERSON_AND_ORGANIZATION_ROLE ( 'design_owner' ) ;
#155 = VERTEX_POINT ( 'NONE', #73 ) ;
#156 = EDGE_LOOP ( 'NONE', ( #105 ) ) ;
#157 = APPLICATION_CONTEXT ( 'configuration controlled 3d designs of mechanical parts and assemblies' ) ;
#158 = CIRCLE ( 'NONE', #93, 1.250000000000000000 ) ;
#159 = COORDINATED_UNIVERSAL_TIME_OFFSET ( 1, 0, .AHEAD. ) ;
#160 = EDGE_LOOP ( 'NONE', ( #143 ) ) ;
#161 = ORIENTED_EDGE ( 'NONE', *, *, #151, .F. ) ;
#162 = CALENDAR_DATE ( 2021, 12, 11 ) ;
#163 = CC_DESIGN_PERSON_AND_ORGANIZATION_ASSIGNMENT ( #74, #154, ( #95 ) ) ;
#164 = DATE_AND_TIME ( #126, #20 ) ;
#165 = UNCERTAINTY_MEASURE_WITH_UNIT (LENGTH_MEASURE( 1.000000000000000082E-05 ), #16, 'distance_accuracy_value', 'NONE');
#166 = CLOSED_SHELL ( 'NONE', ( #103, #112, #134 ) ) ;
#167 = AXIS2_PLACEMENT_3D ( 'NONE', #171, #182, #57 ) ;
#168 = DIRECTION ( 'NONE',  ( 0.0000000000000000000, 0.0000000000000000000, 1.000000000000000000 ) ) ;
#169 = DIRECTION ( 'NONE',  ( -3.491481338843133355E-15, 1.224646799147353454E-16, -1.000000000000000000 ) ) ;
#170 = CC_DESIGN_APPROVAL ( #46, ( #176 ) ) ;
#171 = CARTESIAN_POINT ( 'NONE',  ( 0.0000000000000000000, 0.0000000000000000000, 0.0000000000000000000 ) ) ;
#172 = EDGE_LOOP ( 'NONE', ( #4 ) ) ;
#173 = ORIENTED_EDGE ( 'NONE', *, *, #53, .T. ) ;
#174 = CC_DESIGN_PERSON_AND_ORGANIZATION_ASSIGNMENT ( #187, #109, ( #176 ) ) ;
#175 = DIRECTION ( 'NONE',  ( -3.491481338843133355E-15, 1.224646799147353454E-16, -1.000000000000000000 ) ) ;
#176 = PRODUCT_DEFINITION_FORMATION_WITH_SPECIFIED_SOURCE ( 'ANY', '', #95, .NOT_KNOWN. ) ;
#177 = APPROVAL_DATE_TIME ( #146, #118 ) ;
#178 = DIRECTION ( 'NONE',  ( -3.491481338843133355E-15, 1.224646799147353454E-16, -1.000000000000000000 ) ) ;
#179 = FACE_OUTER_BOUND ( 'NONE', #5, .T. ) ;
#180 = PLANE ( 'NONE',  #28 ) ;
#181 = ADVANCED_FACE ( 'NONE', ( #13, #49 ), #194, .T. ) ;
#182 = DIRECTION ( 'NONE',  ( -3.491481338843133355E-15, 1.224646799147353454E-16, -1.000000000000000000 ) ) ;
#183 = CARTESIAN_POINT ( 'NONE',  ( 0.0000000000000000000, 1.250000000000000000, 0.0000000000000000000 ) ) ;
#184 = APPLICATION_PROTOCOL_DEFINITION ( 'international standard', 'config_control_design', 1994, #11 ) ;
#185 = APPROVAL_PERSON_ORGANIZATION ( #48, #118, #124 ) ;
#186 = DIRECTION ( 'NONE',  ( -4.275831445896959482E-31, -1.000000000000000000, -1.224646799147353454E-16 ) ) ;
#187 = PERSON_AND_ORGANIZATION ( #130, #47 ) ;
#188 = EDGE_LOOP ( 'NONE', ( #107 ) ) ;
#189 = APPROVAL_STATUS ( 'not_yet_approved' ) ;
#190 = CC_DESIGN_PERSON_AND_ORGANIZATION_ASSIGNMENT ( #106, #140, ( #80 ) ) ;
#191 = PERSON_AND_ORGANIZATION ( #130, #47 ) ;
#192 = SHAPE_DEFINITION_REPRESENTATION ( #110, #90 ) ;
#193 = CIRCLE ( 'NONE', #147, 1.250000000000000000 ) ;
#194 = CONICAL_SURFACE ( 'NONE', #21, 0.9500000000000033973, 0.7853981633974511656 ) ;
#195 = LOCAL_TIME ( 11, 34, 53.00000000000000000, #63 ) ;
#196 = CIRCLE ( 'NONE', #101, 1.250000000000000000 ) ;
#197 = DESIGN_CONTEXT ( 'detailed design', #11, 'design' ) ;
#198 = ADVANCED_FACE ( 'NONE', ( #120 ), #100, .F. ) ;
#199 = FACE_OUTER_BOUND ( 'NONE', #144, .T. ) ;
#200 = MANIFOLD_SOLID_BREP ( 'Corps-Déplacer/Copier1[2]', #166 ) ;
#201 = MANIFOLD_SOLID_BREP ( 'Corps-Déplacer/Copier1[1]', #136 ) ;
#202 =( NAMED_UNIT ( * ) SI_UNIT ( $, .STERADIAN. ) SOLID_ANGLE_UNIT ( ) );
#203 = DIRECTION ( 'NONE',  ( -3.491481338843133355E-15, 1.224646799147353454E-16, -1.000000000000000000 ) ) ;
ENDSEC;
END-ISO-10303-21;
