ISO-10303-21;
HEADER;
FILE_DESCRIPTION (( 'STEP AP203' ),
    '1' );
FILE_NAME ('57082.step',
    '2021-11-12T10:34:52',
    ( '' ),
    ( '' ),
    'SwSTEP 2.0',
    'SolidWorks 2019',
    '' );
FILE_SCHEMA (( 'CONFIG_CONTROL_DESIGN' ));
ENDSEC;

DATA;
#1 = CYLINDRICAL_SURFACE ( 'NONE', #171, 1.000000000000000444 ) ;
#2 = DIRECTION ( 'NONE',  ( 0.0000000000000000000, 1.000000000000000000, 0.0000000000000000000 ) ) ;
#3 = CYLINDRICAL_SURFACE ( 'NONE', #72, 0.9999999999999991118 ) ;
#4 = PERSON_AND_ORGANIZATION ( #57, #194 ) ;
#5 = CIRCLE ( 'NONE', #125, 1.000000000000001332 ) ;
#6 = PLANE ( 'NONE',  #119 ) ;
#7 = PERSON_AND_ORGANIZATION ( #57, #194 ) ;
#8 = CARTESIAN_POINT ( 'NONE',  ( 1.117274028429802674E-13, 0.6999999999999957367, 32.00000000000000000 ) ) ;
#9 = VERTEX_POINT ( 'NONE', #8 ) ;
#10 = EDGE_CURVE ( 'NONE', #149, #149, #5, .T. ) ;
#11 = APPLICATION_PROTOCOL_DEFINITION ( 'international standard', 'config_control_design', 1994, #182 ) ;
#12 = EDGE_LOOP ( 'NONE', ( #94 ) ) ;
#13 = EDGE_CURVE ( 'NONE', #41, #41, #28, .T. ) ;
#14 = CC_DESIGN_SECURITY_CLASSIFICATION ( #102, ( #24 ) ) ;
#15 = CARTESIAN_POINT ( 'NONE',  ( 1.117274028429802674E-13, -3.918869757271531052E-15, 32.00000000000000000 ) ) ;
#16 = DIRECTION ( 'NONE',  ( -3.491481338843133355E-15, 1.224646799147353454E-16, -1.000000000000000000 ) ) ;
#17 = DATE_TIME_ROLE ( 'classification_date' ) ;
#18 = FACE_OUTER_BOUND ( 'NONE', #183, .T. ) ;
#19 = CARTESIAN_POINT ( 'NONE',  ( 0.0000000000000000000, 0.0000000000000000000, 0.0000000000000000000 ) ) ;
#20 = DIRECTION ( 'NONE',  ( -3.491481338843133355E-15, 1.224646799147353454E-16, -1.000000000000000000 ) ) ;
#21 = APPROVAL_DATE_TIME ( #98, #153 ) ;
#22 = CARTESIAN_POINT ( 'NONE',  ( 2.793185071074506684E-14, 0.9999999999999983347, 8.000000000000000000 ) ) ;
#23 = MECHANICAL_CONTEXT ( 'NONE', #120, 'mechanical' ) ;
#24 = PRODUCT_DEFINITION_FORMATION_WITH_SPECIFIED_SOURCE ( 'ANY', '', #154, .NOT_KNOWN. ) ;
#25 = PRODUCT_RELATED_PRODUCT_CATEGORY ( 'detail', '', ( #154 ) ) ;
#26 = CC_DESIGN_PERSON_AND_ORGANIZATION_ASSIGNMENT ( #132, #39, ( #137 ) ) ;
#27 = APPROVAL_PERSON_ORGANIZATION ( #33, #88, #113 ) ;
#28 = CIRCLE ( 'NONE', #145, 0.9999999999999991118 ) ;
#29 = DIRECTION ( 'NONE',  ( 0.0000000000000000000, 1.000000000000000000, 0.0000000000000000000 ) ) ;
#30 = AXIS2_PLACEMENT_3D ( 'NONE', #140, #156, #46 ) ;
#31 = FACE_OUTER_BOUND ( 'NONE', #69, .T. ) ;
#32 = DIRECTION ( 'NONE',  ( 4.275831445896959482E-31, 1.000000000000000000, 1.224646799147353700E-16 ) ) ;
#33 = PERSON_AND_ORGANIZATION ( #57, #194 ) ;
#34 = FACE_OUTER_BOUND ( 'NONE', #116, .T. ) ;
#35 = ADVANCED_FACE ( 'NONE', ( #34, #92 ), #3, .T. ) ;
#36 = ORIENTED_EDGE ( 'NONE', *, *, #55, .T. ) ;
#37 = CONICAL_SURFACE ( 'NONE', #151, 0.6999999999999996225, 0.7853981633974598253 ) ;
#38 = PERSON_AND_ORGANIZATION ( #57, #194 ) ;
#39 = PERSON_AND_ORGANIZATION_ROLE ( 'creator' ) ;
#40 = FACE_OUTER_BOUND ( 'NONE', #12, .T. ) ;
#41 = VERTEX_POINT ( 'NONE', #164 ) ;
#42 = ORIENTED_EDGE ( 'NONE', *, *, #10, .F. ) ;
#43 =( GEOMETRIC_REPRESENTATION_CONTEXT ( 3 ) GLOBAL_UNCERTAINTY_ASSIGNED_CONTEXT ( ( #117 ) ) GLOBAL_UNIT_ASSIGNED_CONTEXT ( ( #66, #131, #99 ) ) REPRESENTATION_CONTEXT ( 'NONE', 'WORKASPACE' ) );
#44 = APPROVAL_PERSON_ORGANIZATION ( #38, #153, #165 ) ;
#45 = DIRECTION ( 'NONE',  ( -3.491481338843133355E-15, 1.224646799147353454E-16, -1.000000000000000000 ) ) ;
#46 = DIRECTION ( 'NONE',  ( 0.0000000000000000000, 1.000000000000000000, 0.0000000000000000000 ) ) ;
#47 = LOCAL_TIME ( 11, 34, 52.00000000000000000, #95 ) ;
#48 = DIRECTION ( 'NONE',  ( -4.275831445896959482E-31, -1.000000000000000000, -1.224646799147353454E-16 ) ) ;
#49 = ADVANCED_FACE ( 'NONE', ( #31 ), #91, .F. ) ;
#50 = DIRECTION ( 'NONE',  ( 3.491481338843133355E-15, -1.224646799147353454E-16, 1.000000000000000000 ) ) ;
#51 = ORIENTED_EDGE ( 'NONE', *, *, #55, .F. ) ;
#52 = CALENDAR_DATE ( 2021, 12, 11 ) ;
#53 = APPLICATION_PROTOCOL_DEFINITION ( 'international standard', 'config_control_design', 1994, #120 ) ;
#54 = DIRECTION ( 'NONE',  ( 1.000000000000000000, 0.0000000000000000000, 0.0000000000000000000 ) ) ;
#55 = EDGE_CURVE ( 'NONE', #9, #9, #82, .T. ) ;
#56 = CIRCLE ( 'NONE', #138, 0.9999999999999993339 ) ;
#57 = PERSON ( 'UNSPECIFIED', 'UNSPECIFIED', 'UNSPECIFIED', ('UNSPECIFIED'), ('UNSPECIFIED'), ('UNSPECIFIED') ) ;
#58 = FACE_OUTER_BOUND ( 'NONE', #128, .T. ) ;
#59 = ORIENTED_EDGE ( 'NONE', *, *, #103, .F. ) ;
#60 = MANIFOLD_SOLID_BREP ( 'Corps-Déplacer/Copier1[2]', #152 ) ;
#61 = CARTESIAN_POINT ( 'NONE',  ( 0.0000000000000000000, 0.0000000000000000000, 0.0000000000000000000 ) ) ;
#62 = EDGE_CURVE ( 'NONE', #112, #112, #201, .T. ) ;
#63 = COORDINATED_UNIVERSAL_TIME_OFFSET ( 1, 0, .AHEAD. ) ;
#64 = DIRECTION ( 'NONE',  ( -3.491481338843133355E-15, 1.224646799147353454E-16, -1.000000000000000000 ) ) ;
#65 = PERSON_AND_ORGANIZATION ( #57, #194 ) ;
#66 =( LENGTH_UNIT ( ) NAMED_UNIT ( * ) SI_UNIT ( .MILLI., .METRE. ) );
#67 = DIRECTION ( 'NONE',  ( -4.275831445896959482E-31, -1.000000000000000000, -1.224646799147353454E-16 ) ) ;
#68 = PERSON_AND_ORGANIZATION_ROLE ( 'design_owner' ) ;
#69 = EDGE_LOOP ( 'NONE', ( #51 ) ) ;
#70 = CC_DESIGN_PERSON_AND_ORGANIZATION_ASSIGNMENT ( #4, #68, ( #154 ) ) ;
#71 = CC_DESIGN_APPROVAL ( #153, ( #102 ) ) ;
#72 = AXIS2_PLACEMENT_3D ( 'NONE', #124, #175, #169 ) ;
#73 = CARTESIAN_POINT ( 'NONE',  ( -2.137915722948477552E-31, 7.498798913309283934E-33, -6.123233995736762338E-17 ) ) ;
#74 = ORIENTED_EDGE ( 'NONE', *, *, #10, .T. ) ;
#75 = COORDINATED_UNIVERSAL_TIME_OFFSET ( 1, 0, .AHEAD. ) ;
#76 = AXIS2_PLACEMENT_3D ( 'NONE', #81, #196, #67 ) ;
#77 = FACE_BOUND ( 'NONE', #134, .T. ) ;
#78 = APPROVAL_DATE_TIME ( #180, #88 ) ;
#79 = DIRECTION ( 'NONE',  ( 0.0000000000000000000, 0.0000000000000000000, 1.000000000000000000 ) ) ;
#80 = APPROVAL_STATUS ( 'not_yet_approved' ) ;
#81 = CARTESIAN_POINT ( 'NONE',  ( 2.793185071074506684E-14, 7.498798913309266144E-33, 8.000000000000000000 ) ) ;
#82 = CIRCLE ( 'NONE', #186, 0.6999999999999996225 ) ;
#83 = APPROVAL_STATUS ( 'not_yet_approved' ) ;
#84 = ORIENTED_EDGE ( 'NONE', *, *, #13, .F. ) ;
#85 = CC_DESIGN_PERSON_AND_ORGANIZATION_ASSIGNMENT ( #93, #158, ( #102 ) ) ;
#86 = DESIGN_CONTEXT ( 'detailed design', #182, 'design' ) ;
#87 = EDGE_LOOP ( 'NONE', ( #190 ) ) ;
#88 = APPROVAL ( #83, 'UNSPECIFIED' ) ;
#89 = EDGE_LOOP ( 'NONE', ( #74 ) ) ;
#90 = PRODUCT_DEFINITION_SHAPE ( 'NONE', 'NONE',  #137 ) ;
#91 = PLANE ( 'NONE',  #148 ) ;
#92 = FACE_OUTER_BOUND ( 'NONE', #146, .T. ) ;
#93 = PERSON_AND_ORGANIZATION ( #57, #194 ) ;
#94 = ORIENTED_EDGE ( 'NONE', *, *, #62, .T. ) ;
#95 = COORDINATED_UNIVERSAL_TIME_OFFSET ( 1, 0, .AHEAD. ) ;
#96 = DIRECTION ( 'NONE',  ( -3.491481338843133355E-15, 1.224646799147353454E-16, -1.000000000000000000 ) ) ;
#97 = CALENDAR_DATE ( 2021, 12, 11 ) ;
#98 = DATE_AND_TIME ( #97, #166 ) ;
#99 =( NAMED_UNIT ( * ) SI_UNIT ( $, .STERADIAN. ) SOLID_ANGLE_UNIT ( ) );
#100 = CALENDAR_DATE ( 2021, 12, 11 ) ;
#101 = ADVANCED_FACE ( 'NONE', ( #18 ), #6, .T. ) ;
#102 = SECURITY_CLASSIFICATION ( '', '', #162 ) ;
#103 = EDGE_CURVE ( 'NONE', #114, #114, #56, .T. ) ;
#104 = CC_DESIGN_APPROVAL ( #88, ( #24 ) ) ;
#105 = CARTESIAN_POINT ( 'NONE',  ( 2.793185071074506684E-14, -9.797174393178827630E-16, 8.000000000000000000 ) ) ;
#106 = APPROVAL_PERSON_ORGANIZATION ( #160, #202, #109 ) ;
#107 = CARTESIAN_POINT ( 'NONE',  ( 2.793185071074506684E-14, 7.498798913309266144E-33, 8.000000000000000000 ) ) ;
#108 = DIRECTION ( 'NONE',  ( 4.275831445896958607E-31, 1.000000000000000000, 1.224646799147353454E-16 ) ) ;
#109 = APPROVAL_ROLE ( '' ) ;
#110 = CARTESIAN_POINT ( 'NONE',  ( 1.117274028429802674E-13, -3.918869757271531052E-15, 32.00000000000000000 ) ) ;
#111 = APPROVAL_STATUS ( 'not_yet_approved' ) ;
#112 = VERTEX_POINT ( 'NONE', #22 ) ;
#113 = APPROVAL_ROLE ( '' ) ;
#114 = VERTEX_POINT ( 'NONE', #130 ) ;
#115 = PLANE ( 'NONE',  #76 ) ;
#116 = EDGE_LOOP ( 'NONE', ( #141 ) ) ;
#117 = UNCERTAINTY_MEASURE_WITH_UNIT (LENGTH_MEASURE( 1.000000000000000082E-05 ), #66, 'distance_accuracy_value', 'NONE');
#118 = CC_DESIGN_PERSON_AND_ORGANIZATION_ASSIGNMENT ( #65, #191, ( #24 ) ) ;
#119 = AXIS2_PLACEMENT_3D ( 'NONE', #107, #50, #48 ) ;
#120 = APPLICATION_CONTEXT ( 'configuration controlled 3d designs of mechanical parts and assemblies' ) ;
#121 = PLANE ( 'NONE',  #199 ) ;
#122 = FACE_OUTER_BOUND ( 'NONE', #87, .T. ) ;
#123 = CARTESIAN_POINT ( 'NONE',  ( -4.275831445896955103E-31, 1.499759782661856787E-32, -1.224646799147352468E-16 ) ) ;
#124 = CARTESIAN_POINT ( 'NONE',  ( 0.0000000000000000000, 0.0000000000000000000, 0.0000000000000000000 ) ) ;
#125 = AXIS2_PLACEMENT_3D ( 'NONE', #188, #16, #192 ) ;
#126 = CALENDAR_DATE ( 2021, 12, 11 ) ;
#127 = ADVANCED_FACE ( 'NONE', ( #177, #77 ), #37, .T. ) ;
#128 = EDGE_LOOP ( 'NONE', ( #197 ) ) ;
#129 = DATE_AND_TIME ( #126, #203 ) ;
#130 = CARTESIAN_POINT ( 'NONE',  ( 2.793185071074506684E-14, 0.9999999999999983347, 8.000000000000000000 ) ) ;
#131 =( NAMED_UNIT ( * ) PLANE_ANGLE_UNIT ( ) SI_UNIT ( $, .RADIAN. ) );
#132 = PERSON_AND_ORGANIZATION ( #57, #194 ) ;
#133 = DATE_AND_TIME ( #176, #184 ) ;
#134 = EDGE_LOOP ( 'NONE', ( #36 ) ) ;
#135 = LOCAL_TIME ( 11, 34, 52.00000000000000000, #193 ) ;
#136 = ADVANCED_BREP_SHAPE_REPRESENTATION ( '57082', ( #200, #60, #198 ), #43 ) ;
#137 = PRODUCT_DEFINITION ( 'UNKNOWN', '', #24, #86 ) ;
#138 = AXIS2_PLACEMENT_3D ( 'NONE', #105, #64, #2 ) ;
#139 = FACE_OUTER_BOUND ( 'NONE', #89, .T. ) ;
#140 = CARTESIAN_POINT ( 'NONE',  ( 2.793185071074506684E-14, -9.797174393178827630E-16, 8.000000000000000000 ) ) ;
#141 = ORIENTED_EDGE ( 'NONE', *, *, #103, .T. ) ;
#142 = PERSON_AND_ORGANIZATION_ROLE ( 'creator' ) ;
#143 = ADVANCED_FACE ( 'NONE', ( #58 ), #121, .T. ) ;
#144 = DIRECTION ( 'NONE',  ( -3.491481338843133355E-15, 1.224646799147353454E-16, -1.000000000000000000 ) ) ;
#145 = AXIS2_PLACEMENT_3D ( 'NONE', #123, #45, #108 ) ;
#146 = EDGE_LOOP ( 'NONE', ( #84 ) ) ;
#147 = SHAPE_DEFINITION_REPRESENTATION ( #90, #136 ) ;
#148 = AXIS2_PLACEMENT_3D ( 'NONE', #189, #144, #159 ) ;
#149 = VERTEX_POINT ( 'NONE', #181 ) ;
#150 = DATE_AND_TIME ( #100, #135 ) ;
#151 = AXIS2_PLACEMENT_3D ( 'NONE', #15, #96, #161 ) ;
#152 = CLOSED_SHELL ( 'NONE', ( #143, #35, #101 ) ) ;
#153 = APPROVAL ( #111, 'UNSPECIFIED' ) ;
#154 = PRODUCT ( '57082', '57082', '', ( #23 ) ) ;
#155 = DIRECTION ( 'NONE',  ( 4.275831445896959482E-31, 1.000000000000000000, 1.224646799147353454E-16 ) ) ;
#156 = DIRECTION ( 'NONE',  ( -3.491481338843133355E-15, 1.224646799147353454E-16, -1.000000000000000000 ) ) ;
#157 = CC_DESIGN_PERSON_AND_ORGANIZATION_ASSIGNMENT ( #7, #142, ( #24 ) ) ;
#158 = PERSON_AND_ORGANIZATION_ROLE ( 'classification_officer' ) ;
#159 = DIRECTION ( 'NONE',  ( 4.275831445896959482E-31, 1.000000000000000000, 1.224646799147353454E-16 ) ) ;
#160 = PERSON_AND_ORGANIZATION ( #57, #194 ) ;
#161 = DIRECTION ( 'NONE',  ( 0.0000000000000000000, 1.000000000000000000, 0.0000000000000000000 ) ) ;
#162 = SECURITY_CLASSIFICATION_LEVEL ( 'unclassified' ) ;
#163 = CC_DESIGN_DATE_AND_TIME_ASSIGNMENT ( #150, #17, ( #102 ) ) ;
#164 = CARTESIAN_POINT ( 'NONE',  ( 0.0000000000000000000, 0.9999999999999991118, 0.0000000000000000000 ) ) ;
#165 = APPROVAL_ROLE ( '' ) ;
#166 = LOCAL_TIME ( 11, 34, 52.00000000000000000, #179 ) ;
#167 = CC_DESIGN_DATE_AND_TIME_ASSIGNMENT ( #129, #195, ( #137 ) ) ;
#168 = CLOSED_SHELL ( 'NONE', ( #185, #172, #127, #49 ) ) ;
#169 = DIRECTION ( 'NONE',  ( 4.275831445896958607E-31, 1.000000000000000000, 1.224646799147353454E-16 ) ) ;
#170 = DIRECTION ( 'NONE',  ( -3.491481338843133355E-15, 1.224646799147353454E-16, -1.000000000000000000 ) ) ;
#171 = AXIS2_PLACEMENT_3D ( 'NONE', #61, #173, #32 ) ;
#172 = ADVANCED_FACE ( 'NONE', ( #139, #122 ), #1, .T. ) ;
#173 = DIRECTION ( 'NONE',  ( -3.491481338843133355E-15, 1.224646799147353454E-16, -1.000000000000000000 ) ) ;
#174 = APPROVAL_DATE_TIME ( #133, #202 ) ;
#175 = DIRECTION ( 'NONE',  ( -3.491481338843133355E-15, 1.224646799147353454E-16, -1.000000000000000000 ) ) ;
#176 = CALENDAR_DATE ( 2021, 12, 11 ) ;
#177 = FACE_OUTER_BOUND ( 'NONE', #187, .T. ) ;
#178 = CC_DESIGN_APPROVAL ( #202, ( #137 ) ) ;
#179 = COORDINATED_UNIVERSAL_TIME_OFFSET ( 1, 0, .AHEAD. ) ;
#180 = DATE_AND_TIME ( #52, #47 ) ;
#181 = CARTESIAN_POINT ( 'NONE',  ( 1.106799584413273463E-13, 0.9999999999999974465, 31.70000000000000639 ) ) ;
#182 = APPLICATION_CONTEXT ( 'configuration controlled 3d designs of mechanical parts and assemblies' ) ;
#183 = EDGE_LOOP ( 'NONE', ( #59 ) ) ;
#184 = LOCAL_TIME ( 11, 34, 52.00000000000000000, #75 ) ;
#185 = ADVANCED_FACE ( 'NONE', ( #40 ), #115, .F. ) ;
#186 = AXIS2_PLACEMENT_3D ( 'NONE', #110, #20, #29 ) ;
#187 = EDGE_LOOP ( 'NONE', ( #42 ) ) ;
#188 = CARTESIAN_POINT ( 'NONE',  ( 1.106799584413273463E-13, -3.882130353297111770E-15, 31.70000000000000639 ) ) ;
#189 = CARTESIAN_POINT ( 'NONE',  ( 1.117274028429802674E-13, 5.249159239316442784E-33, 32.00000000000000000 ) ) ;
#190 = ORIENTED_EDGE ( 'NONE', *, *, #62, .F. ) ;
#191 = PERSON_AND_ORGANIZATION_ROLE ( 'design_supplier' ) ;
#192 = DIRECTION ( 'NONE',  ( 0.0000000000000000000, 1.000000000000000000, 0.0000000000000000000 ) ) ;
#193 = COORDINATED_UNIVERSAL_TIME_OFFSET ( 1, 0, .AHEAD. ) ;
#194 = ORGANIZATION ( 'UNSPECIFIED', 'UNSPECIFIED', '' ) ;
#195 = DATE_TIME_ROLE ( 'creation_date' ) ;
#196 = DIRECTION ( 'NONE',  ( 3.491481338843133355E-15, -1.224646799147353454E-16, 1.000000000000000000 ) ) ;
#197 = ORIENTED_EDGE ( 'NONE', *, *, #13, .T. ) ;
#198 = AXIS2_PLACEMENT_3D ( 'NONE', #19, #79, #54 ) ;
#199 = AXIS2_PLACEMENT_3D ( 'NONE', #73, #170, #155 ) ;
#200 = MANIFOLD_SOLID_BREP ( 'Corps-Déplacer/Copier1[1]', #168 ) ;
#201 = CIRCLE ( 'NONE', #30, 0.9999999999999993339 ) ;
#202 = APPROVAL ( #80, 'UNSPECIFIED' ) ;
#203 = LOCAL_TIME ( 11, 34, 52.00000000000000000, #63 ) ;
ENDSEC;
END-ISO-10303-21;
