ISO-10303-21;
HEADER;
FILE_DESCRIPTION (( 'STEP AP203' ),
    '1' );
FILE_NAME ('57077.step',
    '2021-11-09T08:38:49',
    ( '' ),
    ( '' ),
    'SwSTEP 2.0',
    'SolidWorks 2019',
    '' );
FILE_SCHEMA (( 'CONFIG_CONTROL_DESIGN' ));
ENDSEC;

DATA;
#1 = FACE_BOUND ( 'NONE', #27, .T. ) ;
#2 = CARTESIAN_POINT ( 'NONE',  ( 7.681258945454893382E-14, 5.999999999999991118, 22.00000000000000000 ) ) ;
#3 = VERTEX_POINT ( 'NONE', #63 ) ;
#4 = CC_DESIGN_SECURITY_CLASSIFICATION ( #131, ( #91 ) ) ;
#5 = CARTESIAN_POINT ( 'NONE',  ( 2.531323970661271619E-13, 5.999999999999991118, 72.50000000000000000 ) ) ;
#6 = ADVANCED_FACE ( 'NONE', ( #43 ), #13, .T. ) ;
#7 = PERSON_AND_ORGANIZATION ( #101, #109 ) ;
#8 = DATE_AND_TIME ( #196, #12 ) ;
#9 = AXIS2_PLACEMENT_3D ( 'NONE', #161, #77, #175 ) ;
#10 = COORDINATED_UNIVERSAL_TIME_OFFSET ( 1, 0, .AHEAD. ) ;
#11 = CALENDAR_DATE ( 2021, 9, 11 ) ;
#12 = LOCAL_TIME ( 9, 38, 49.00000000000000000, #10 ) ;
#13 = PLANE ( 'NONE',  #157 ) ;
#14 = DIRECTION ( 'NONE',  ( -4.275831445896958607E-31, -1.000000000000000000, -1.224646799147353207E-16 ) ) ;
#15 = CIRCLE ( 'NONE', #106, 5.500000000000000000 ) ;
#16 = AXIS2_PLACEMENT_3D ( 'NONE', #128, #149, #160 ) ;
#17 = DIRECTION ( 'NONE',  ( -4.275831445896958607E-31, -1.000000000000000000, -1.224646799147353207E-16 ) ) ;
#18 = FACE_OUTER_BOUND ( 'NONE', #59, .T. ) ;
#19 = DIRECTION ( 'NONE',  ( -3.491481338843133355E-15, 1.224646799147353207E-16, -1.000000000000000000 ) ) ;
#20 = CLOSED_SHELL ( 'NONE', ( #197, #85, #108, #122 ) ) ;
#21 = APPROVAL_DATE_TIME ( #163, #173 ) ;
#22 = SECURITY_CLASSIFICATION_LEVEL ( 'unclassified' ) ;
#23 = APPLICATION_PROTOCOL_DEFINITION ( 'international standard', 'config_control_design', 1994, #51 ) ;
#24 = CIRCLE ( 'NONE', #195, 5.999999999999993783 ) ;
#25 = ORIENTED_EDGE ( 'NONE', *, *, #113, .T. ) ;
#26 = ORIENTED_EDGE ( 'NONE', *, *, #38, .F. ) ;
#27 = EDGE_LOOP ( 'NONE', ( #202 ) ) ;
#28 = PLANE ( 'NONE',  #142 ) ;
#29 = CC_DESIGN_DATE_AND_TIME_ASSIGNMENT ( #102, #120, ( #123 ) ) ;
#30 = LOCAL_TIME ( 9, 38, 49.00000000000000000, #57 ) ;
#31 = FACE_OUTER_BOUND ( 'NONE', #189, .T. ) ;
#32 = CYLINDRICAL_SURFACE ( 'NONE', #130, 5.999999999999996447 ) ;
#33 = DIRECTION ( 'NONE',  ( -4.275831445896958607E-31, -1.000000000000000000, -1.224646799147353207E-16 ) ) ;
#34 = VERTEX_POINT ( 'NONE', #2 ) ;
#35 = PERSON_AND_ORGANIZATION_ROLE ( 'design_supplier' ) ;
#36 = DIRECTION ( 'NONE',  ( 0.0000000000000000000, 0.0000000000000000000, 1.000000000000000000 ) ) ;
#37 = PERSON_AND_ORGANIZATION_ROLE ( 'classification_officer' ) ;
#38 = EDGE_CURVE ( 'NONE', #34, #34, #49, .T. ) ;
#39 = PERSON_AND_ORGANIZATION ( #101, #109 ) ;
#40 = AXIS2_PLACEMENT_3D ( 'NONE', #71, #141, #58 ) ;
#41 = EDGE_LOOP ( 'NONE', ( #124 ) ) ;
#42 = CARTESIAN_POINT ( 'NONE',  ( -2.137923559883791872E-30, 7.498826401578061086E-32, -6.123256441611602477E-16 ) ) ;
#43 = FACE_OUTER_BOUND ( 'NONE', #139, .T. ) ;
#44 = AXIS2_PLACEMENT_3D ( 'NONE', #48, #159, #194 ) ;
#45 = EDGE_LOOP ( 'NONE', ( #156 ) ) ;
#46 = CC_DESIGN_DATE_AND_TIME_ASSIGNMENT ( #165, #135, ( #131 ) ) ;
#47 = FACE_OUTER_BOUND ( 'NONE', #186, .T. ) ;
#48 = CARTESIAN_POINT ( 'NONE',  ( 2.548781377355487223E-13, 4.124339402320095284E-32, 73.00000000000000000 ) ) ;
#49 = CIRCLE ( 'NONE', #40, 5.999999999999993783 ) ;
#50 = FACE_OUTER_BOUND ( 'NONE', #168, .T. ) ;
#51 = APPLICATION_CONTEXT ( 'configuration controlled 3d designs of mechanical parts and assemblies' ) ;
#52 = DIRECTION ( 'NONE',  ( -3.491481338843133355E-15, 1.224646799147353207E-16, -1.000000000000000000 ) ) ;
#53 =( NAMED_UNIT ( * ) SI_UNIT ( $, .STERADIAN. ) SOLID_ANGLE_UNIT ( ) );
#54 = APPROVAL_STATUS ( 'not_yet_approved' ) ;
#55 = PERSON_AND_ORGANIZATION ( #101, #109 ) ;
#56 = APPROVAL_ROLE ( '' ) ;
#57 = COORDINATED_UNIVERSAL_TIME_OFFSET ( 1, 0, .AHEAD. ) ;
#58 = DIRECTION ( 'NONE',  ( 0.0000000000000000000, 1.000000000000000000, 0.0000000000000000000 ) ) ;
#59 = EDGE_LOOP ( 'NONE', ( #110 ) ) ;
#60 = APPROVAL ( #133, 'UNSPECIFIED' ) ;
#61 = CARTESIAN_POINT ( 'NONE',  ( 7.681258945454893382E-14, 4.499279347985564613E-32, 22.00000000000000000 ) ) ;
#62 = DIRECTION ( 'NONE',  ( -3.491481338843133355E-15, 1.224646799147353207E-16, -1.000000000000000000 ) ) ;
#63 = CARTESIAN_POINT ( 'NONE',  ( 2.548781377355487223E-13, 5.499999999999991118, 73.00000000000000000 ) ) ;
#64 =( NAMED_UNIT ( * ) PLANE_ANGLE_UNIT ( ) SI_UNIT ( $, .RADIAN. ) );
#65 = COORDINATED_UNIVERSAL_TIME_OFFSET ( 1, 0, .AHEAD. ) ;
#66 = EDGE_CURVE ( 'NONE', #193, #193, #81, .T. ) ;
#67 = PERSON_AND_ORGANIZATION ( #101, #109 ) ;
#68 = APPROVAL_DATE_TIME ( #100, #116 ) ;
#69 = CARTESIAN_POINT ( 'NONE',  ( 7.681258945454893382E-14, 4.499279347985564613E-32, 22.00000000000000000 ) ) ;
#70 = CC_DESIGN_PERSON_AND_ORGANIZATION_ASSIGNMENT ( #55, #181, ( #90 ) ) ;
#71 = CARTESIAN_POINT ( 'NONE',  ( 7.681258945454893382E-14, -2.694222958124176809E-15, 22.00000000000000000 ) ) ;
#72 = ORIENTED_EDGE ( 'NONE', *, *, #74, .F. ) ;
#73 = DIRECTION ( 'NONE',  ( 0.0000000000000000000, 1.000000000000000000, 0.0000000000000000000 ) ) ;
#74 = EDGE_CURVE ( 'NONE', #3, #3, #15, .T. ) ;
#75 = CARTESIAN_POINT ( 'NONE',  ( 7.681258945454893382E-14, -2.694222958124176809E-15, 22.00000000000000000 ) ) ;
#76 = APPLICATION_CONTEXT ( 'configuration controlled 3d designs of mechanical parts and assemblies' ) ;
#77 = DIRECTION ( 'NONE',  ( -3.491481338843133355E-15, 1.224646799147353207E-16, -1.000000000000000000 ) ) ;
#78 =( LENGTH_UNIT ( ) NAMED_UNIT ( * ) SI_UNIT ( .MILLI., .METRE. ) );
#79 = MANIFOLD_SOLID_BREP ( 'Corps-Déplacer/Copier1[2]', #147 ) ;
#80 = EDGE_CURVE ( 'NONE', #129, #129, #24, .T. ) ;
#81 = CIRCLE ( 'NONE', #97, 5.999999999999991118 ) ;
#82 = APPROVAL_PERSON_ORGANIZATION ( #88, #116, #152 ) ;
#83 = DESIGN_CONTEXT ( 'detailed design', #76, 'design' ) ;
#84 = MECHANICAL_CONTEXT ( 'NONE', #51, 'mechanical' ) ;
#85 = ADVANCED_FACE ( 'NONE', ( #95, #111 ), #32, .T. ) ;
#86 = APPROVAL_STATUS ( 'not_yet_approved' ) ;
#87 = SHAPE_DEFINITION_REPRESENTATION ( #169, #185 ) ;
#88 = PERSON_AND_ORGANIZATION ( #101, #109 ) ;
#89 = ORIENTED_EDGE ( 'NONE', *, *, #80, .T. ) ;
#90 = PRODUCT ( '57077', '57077', '', ( #84 ) ) ;
#91 = PRODUCT_DEFINITION_FORMATION_WITH_SPECIFIED_SOURCE ( 'ANY', '', #90, .NOT_KNOWN. ) ;
#92 = EDGE_LOOP ( 'NONE', ( #25 ) ) ;
#93 = AXIS2_PLACEMENT_3D ( 'NONE', #174, #112, #33 ) ;
#94 = DIRECTION ( 'NONE',  ( 4.275831445896958607E-31, 1.000000000000000000, 1.224646799147353454E-16 ) ) ;
#95 = FACE_OUTER_BOUND ( 'NONE', #45, .T. ) ;
#96 = DIRECTION ( 'NONE',  ( 3.491481338843133355E-15, -1.224646799147353207E-16, 1.000000000000000000 ) ) ;
#97 = AXIS2_PLACEMENT_3D ( 'NONE', #42, #107, #171 ) ;
#98 = CARTESIAN_POINT ( 'NONE',  ( 2.548781377355487223E-13, -8.939921633775676859E-15, 73.00000000000000000 ) ) ;
#99 = PRODUCT_RELATED_PRODUCT_CATEGORY ( 'detail', '', ( #90 ) ) ;
#100 = DATE_AND_TIME ( #11, #155 ) ;
#101 = PERSON ( 'UNSPECIFIED', 'UNSPECIFIED', 'UNSPECIFIED', ('UNSPECIFIED'), ('UNSPECIFIED'), ('UNSPECIFIED') ) ;
#102 = DATE_AND_TIME ( #199, #179 ) ;
#103 = PERSON_AND_ORGANIZATION ( #101, #109 ) ;
#104 = CARTESIAN_POINT ( 'NONE',  ( 0.0000000000000000000, 0.0000000000000000000, 0.0000000000000000000 ) ) ;
#105 = AXIS2_PLACEMENT_3D ( 'NONE', #98, #19, #114 ) ;
#106 = AXIS2_PLACEMENT_3D ( 'NONE', #190, #191, #178 ) ;
#107 = DIRECTION ( 'NONE',  ( -3.491481338843133355E-15, 1.224646799147353207E-16, -1.000000000000000000 ) ) ;
#108 = ADVANCED_FACE ( 'NONE', ( #50, #1 ), #172, .T. ) ;
#109 = ORGANIZATION ( 'UNSPECIFIED', 'UNSPECIFIED', '' ) ;
#110 = ORIENTED_EDGE ( 'NONE', *, *, #66, .T. ) ;
#111 = FACE_OUTER_BOUND ( 'NONE', #92, .T. ) ;
#112 = DIRECTION ( 'NONE',  ( 3.491481338843133355E-15, -1.224646799147353207E-16, 1.000000000000000000 ) ) ;
#113 = EDGE_CURVE ( 'NONE', #192, #192, #164, .T. ) ;
#114 = DIRECTION ( 'NONE',  ( 0.0000000000000000000, 1.000000000000000000, 0.0000000000000000000 ) ) ;
#115 = CARTESIAN_POINT ( 'NONE',  ( 7.681258945454893382E-14, 5.999999999999991118, 22.00000000000000000 ) ) ;
#116 = APPROVAL ( #86, 'UNSPECIFIED' ) ;
#117 = CYLINDRICAL_SURFACE ( 'NONE', #9, 5.999999999999992895 ) ;
#118 = PERSON_AND_ORGANIZATION_ROLE ( 'creator' ) ;
#119 = UNCERTAINTY_MEASURE_WITH_UNIT (LENGTH_MEASURE( 1.000000000000000082E-05 ), #78, 'distance_accuracy_value', 'NONE');
#120 = DATE_TIME_ROLE ( 'creation_date' ) ;
#121 = COORDINATED_UNIVERSAL_TIME_OFFSET ( 1, 0, .AHEAD. ) ;
#122 = ADVANCED_FACE ( 'NONE', ( #47 ), #177, .F. ) ;
#123 = PRODUCT_DEFINITION ( 'UNKNOWN', '', #91, #83 ) ;
#124 = ORIENTED_EDGE ( 'NONE', *, *, #66, .F. ) ;
#125 = CC_DESIGN_APPROVAL ( #60, ( #123 ) ) ;
#126 = FACE_OUTER_BOUND ( 'NONE', #41, .T. ) ;
#127 = CC_DESIGN_PERSON_AND_ORGANIZATION_ASSIGNMENT ( #134, #37, ( #131 ) ) ;
#128 = CARTESIAN_POINT ( 'NONE',  ( 2.531323970661271619E-13, -8.878689293818309285E-15, 72.50000000000000000 ) ) ;
#129 = VERTEX_POINT ( 'NONE', #115 ) ;
#130 = AXIS2_PLACEMENT_3D ( 'NONE', #144, #62, #94 ) ;
#131 = SECURITY_CLASSIFICATION ( '', '', #22 ) ;
#132 = CC_DESIGN_APPROVAL ( #116, ( #131 ) ) ;
#133 = APPROVAL_STATUS ( 'not_yet_approved' ) ;
#134 = PERSON_AND_ORGANIZATION ( #101, #109 ) ;
#135 = DATE_TIME_ROLE ( 'classification_date' ) ;
#136 = APPROVAL_PERSON_ORGANIZATION ( #103, #60, #56 ) ;
#137 = DIRECTION ( 'NONE',  ( 1.000000000000000000, 0.0000000000000000000, 0.0000000000000000000 ) ) ;
#138 = CC_DESIGN_PERSON_AND_ORGANIZATION_ASSIGNMENT ( #67, #118, ( #91 ) ) ;
#139 = EDGE_LOOP ( 'NONE', ( #26 ) ) ;
#140 =( GEOMETRIC_REPRESENTATION_CONTEXT ( 3 ) GLOBAL_UNCERTAINTY_ASSIGNED_CONTEXT ( ( #119 ) ) GLOBAL_UNIT_ASSIGNED_CONTEXT ( ( #78, #64, #53 ) ) REPRESENTATION_CONTEXT ( 'NONE', 'WORKASPACE' ) );
#141 = DIRECTION ( 'NONE',  ( -3.491481338843133355E-15, 1.224646799147353207E-16, -1.000000000000000000 ) ) ;
#142 = AXIS2_PLACEMENT_3D ( 'NONE', #61, #96, #17 ) ;
#143 = CC_DESIGN_PERSON_AND_ORGANIZATION_ASSIGNMENT ( #7, #180, ( #123 ) ) ;
#144 = CARTESIAN_POINT ( 'NONE',  ( 0.0000000000000000000, 0.0000000000000000000, 0.0000000000000000000 ) ) ;
#145 = PLANE ( 'NONE',  #93 ) ;
#146 = CARTESIAN_POINT ( 'NONE',  ( 4.275753076543797008E-31, 5.999999999999991118, 1.224624353272506412E-16 ) ) ;
#147 = CLOSED_SHELL ( 'NONE', ( #154, #188, #6 ) ) ;
#148 = MANIFOLD_SOLID_BREP ( 'Corps-Déplacer/Copier1[1]', #20 ) ;
#149 = DIRECTION ( 'NONE',  ( -3.491481338843133355E-15, 1.224646799147353207E-16, -1.000000000000000000 ) ) ;
#150 = APPLICATION_PROTOCOL_DEFINITION ( 'international standard', 'config_control_design', 1994, #76 ) ;
#151 = APPROVAL_PERSON_ORGANIZATION ( #166, #173, #182 ) ;
#152 = APPROVAL_ROLE ( '' ) ;
#153 = COORDINATED_UNIVERSAL_TIME_OFFSET ( 1, 0, .AHEAD. ) ;
#154 = ADVANCED_FACE ( 'NONE', ( #18 ), #145, .F. ) ;
#155 = LOCAL_TIME ( 9, 38, 49.00000000000000000, #153 ) ;
#156 = ORIENTED_EDGE ( 'NONE', *, *, #80, .F. ) ;
#157 = AXIS2_PLACEMENT_3D ( 'NONE', #69, #201, #14 ) ;
#158 = FACE_OUTER_BOUND ( 'NONE', #187, .T. ) ;
#159 = DIRECTION ( 'NONE',  ( -3.491481338843133355E-15, 1.224646799147353207E-16, -1.000000000000000000 ) ) ;
#160 = DIRECTION ( 'NONE',  ( 0.0000000000000000000, 1.000000000000000000, 0.0000000000000000000 ) ) ;
#161 = CARTESIAN_POINT ( 'NONE',  ( 0.0000000000000000000, 0.0000000000000000000, 0.0000000000000000000 ) ) ;
#162 = CALENDAR_DATE ( 2021, 9, 11 ) ;
#163 = DATE_AND_TIME ( #184, #30 ) ;
#164 = CIRCLE ( 'NONE', #16, 6.000000000000000000 ) ;
#165 = DATE_AND_TIME ( #162, #176 ) ;
#166 = PERSON_AND_ORGANIZATION ( #101, #109 ) ;
#167 = APPROVAL_DATE_TIME ( #8, #60 ) ;
#168 = EDGE_LOOP ( 'NONE', ( #203 ) ) ;
#169 = PRODUCT_DEFINITION_SHAPE ( 'NONE', 'NONE',  #123 ) ;
#170 = ORIENTED_EDGE ( 'NONE', *, *, #38, .T. ) ;
#171 = DIRECTION ( 'NONE',  ( 4.275831445896959482E-31, 1.000000000000000000, 1.224646799147353207E-16 ) ) ;
#172 = CONICAL_SURFACE ( 'NONE', #105, 5.500000000000000000, 0.7853981633974482790 ) ;
#173 = APPROVAL ( #54, 'UNSPECIFIED' ) ;
#174 = CARTESIAN_POINT ( 'NONE',  ( -1.068961779941895936E-30, 3.749413200789030543E-32, -3.061628220805801239E-16 ) ) ;
#175 = DIRECTION ( 'NONE',  ( 4.275831445896958607E-31, 1.000000000000000000, 1.224646799147353207E-16 ) ) ;
#176 = LOCAL_TIME ( 9, 38, 49.00000000000000000, #121 ) ;
#177 = PLANE ( 'NONE',  #44 ) ;
#178 = DIRECTION ( 'NONE',  ( 0.0000000000000000000, 1.000000000000000000, 0.0000000000000000000 ) ) ;
#179 = LOCAL_TIME ( 9, 38, 49.00000000000000000, #65 ) ;
#180 = PERSON_AND_ORGANIZATION_ROLE ( 'creator' ) ;
#181 = PERSON_AND_ORGANIZATION_ROLE ( 'design_owner' ) ;
#182 = APPROVAL_ROLE ( '' ) ;
#183 = CC_DESIGN_APPROVAL ( #173, ( #91 ) ) ;
#184 = CALENDAR_DATE ( 2021, 9, 11 ) ;
#185 = ADVANCED_BREP_SHAPE_REPRESENTATION ( '57077', ( #148, #79, #198 ), #140 ) ;
#186 = EDGE_LOOP ( 'NONE', ( #72 ) ) ;
#187 = EDGE_LOOP ( 'NONE', ( #89 ) ) ;
#188 = ADVANCED_FACE ( 'NONE', ( #126, #31 ), #117, .T. ) ;
#189 = EDGE_LOOP ( 'NONE', ( #170 ) ) ;
#190 = CARTESIAN_POINT ( 'NONE',  ( 2.548781377355487223E-13, -8.939921633775676859E-15, 73.00000000000000000 ) ) ;
#191 = DIRECTION ( 'NONE',  ( -3.491481338843133355E-15, 1.224646799147353207E-16, -1.000000000000000000 ) ) ;
#192 = VERTEX_POINT ( 'NONE', #5 ) ;
#193 = VERTEX_POINT ( 'NONE', #146 ) ;
#194 = DIRECTION ( 'NONE',  ( 4.275831445896958607E-31, 1.000000000000000000, 1.224646799147353207E-16 ) ) ;
#195 = AXIS2_PLACEMENT_3D ( 'NONE', #75, #52, #73 ) ;
#196 = CALENDAR_DATE ( 2021, 9, 11 ) ;
#197 = ADVANCED_FACE ( 'NONE', ( #158 ), #28, .F. ) ;
#198 = AXIS2_PLACEMENT_3D ( 'NONE', #104, #36, #137 ) ;
#199 = CALENDAR_DATE ( 2021, 9, 11 ) ;
#200 = CC_DESIGN_PERSON_AND_ORGANIZATION_ASSIGNMENT ( #39, #35, ( #91 ) ) ;
#201 = DIRECTION ( 'NONE',  ( 3.491481338843133355E-15, -1.224646799147353207E-16, 1.000000000000000000 ) ) ;
#202 = ORIENTED_EDGE ( 'NONE', *, *, #74, .T. ) ;
#203 = ORIENTED_EDGE ( 'NONE', *, *, #113, .F. ) ;
ENDSEC;
END-ISO-10303-21;
