ISO-10303-21;
HEADER;
FILE_DESCRIPTION (( 'STEP AP203' ),
    '1' );
FILE_NAME ('57075.step',
    '2021-11-09T08:38:48',
    ( '' ),
    ( '' ),
    'SwSTEP 2.0',
    'SolidWorks 2019',
    '' );
FILE_SCHEMA (( 'CONFIG_CONTROL_DESIGN' ));
ENDSEC;

DATA;
#1 = APPROVAL ( #153, 'UNSPECIFIED' ) ;
#2 = CARTESIAN_POINT ( 'NONE',  ( 7.681258945454893382E-14, 3.749399456654636904E-32, 22.00000000000000000 ) ) ;
#3 = AXIS2_PLACEMENT_3D ( 'NONE', #103, #65, #20 ) ;
#4 = FACE_OUTER_BOUND ( 'NONE', #60, .T. ) ;
#5 = FACE_OUTER_BOUND ( 'NONE', #131, .T. ) ;
#6 = DIRECTION ( 'NONE',  ( 1.000000000000000000, 0.0000000000000000000, 0.0000000000000000000 ) ) ;
#7 = CLOSED_SHELL ( 'NONE', ( #79, #147, #59, #52 ) ) ;
#8 = CALENDAR_DATE ( 2021, 9, 11 ) ;
#9 = PERSON_AND_ORGANIZATION ( #97, #88 ) ;
#10 = PRODUCT_DEFINITION ( 'UNKNOWN', '', #193, #89 ) ;
#11 = DATE_AND_TIME ( #8, #13 ) ;
#12 = APPROVAL ( #200, 'UNSPECIFIED' ) ;
#13 = LOCAL_TIME ( 9, 38, 48.00000000000000000, #154 ) ;
#14 = ORIENTED_EDGE ( 'NONE', *, *, #121, .T. ) ;
#15 = EDGE_LOOP ( 'NONE', ( #129 ) ) ;
#16 = AXIS2_PLACEMENT_3D ( 'NONE', #2, #85, #148 ) ;
#17 = CARTESIAN_POINT ( 'NONE',  ( 7.681258945454893382E-14, -2.694222958124176809E-15, 22.00000000000000000 ) ) ;
#18 = FACE_OUTER_BOUND ( 'NONE', #98, .T. ) ;
#19 = FACE_OUTER_BOUND ( 'NONE', #159, .T. ) ;
#20 = DIRECTION ( 'NONE',  ( 0.0000000000000000000, 1.000000000000000000, 0.0000000000000000000 ) ) ;
#21 = DIRECTION ( 'NONE',  ( 0.0000000000000000000, 1.000000000000000000, 0.0000000000000000000 ) ) ;
#22 = ADVANCED_FACE ( 'NONE', ( #187, #190 ), #48, .T. ) ;
#23 = APPROVAL_ROLE ( '' ) ;
#24 = APPLICATION_CONTEXT ( 'configuration controlled 3d designs of mechanical parts and assemblies' ) ;
#25 = APPROVAL_ROLE ( '' ) ;
#26 = AXIS2_PLACEMENT_3D ( 'NONE', #68, #182, #165 ) ;
#27 = PERSON_AND_ORGANIZATION ( #97, #88 ) ;
#28 = DATE_AND_TIME ( #170, #183 ) ;
#29 = APPROVAL_DATE_TIME ( #11, #111 ) ;
#30 = CIRCLE ( 'NONE', #198, 4.999999999999994671 ) ;
#31 = ORIENTED_EDGE ( 'NONE', *, *, #125, .T. ) ;
#32 = EDGE_LOOP ( 'NONE', ( #140 ) ) ;
#33 = CC_DESIGN_SECURITY_CLASSIFICATION ( #145, ( #193 ) ) ;
#34 = DIRECTION ( 'NONE',  ( -3.491481338843133355E-15, 1.224646799147353207E-16, -1.000000000000000000 ) ) ;
#35 = VERTEX_POINT ( 'NONE', #117 ) ;
#36 = CC_DESIGN_APPROVAL ( #12, ( #10 ) ) ;
#37 = DIRECTION ( 'NONE',  ( -3.491481338843133355E-15, 1.224646799147353207E-16, -1.000000000000000000 ) ) ;
#38 = DIRECTION ( 'NONE',  ( 4.275831445896958607E-31, 1.000000000000000000, 1.224646799147353207E-16 ) ) ;
#39 = EDGE_CURVE ( 'NONE', #102, #102, #141, .T. ) ;
#40 = PLANE ( 'NONE',  #78 ) ;
#41 = DATE_TIME_ROLE ( 'creation_date' ) ;
#42 = PERSON_AND_ORGANIZATION_ROLE ( 'creator' ) ;
#43 = DATE_AND_TIME ( #91, #128 ) ;
#44 = PERSON_AND_ORGANIZATION_ROLE ( 'creator' ) ;
#45 = EDGE_CURVE ( 'NONE', #67, #67, #58, .T. ) ;
#46 = DIRECTION ( 'NONE',  ( 4.275831445896959482E-31, 1.000000000000000000, 1.224646799147353207E-16 ) ) ;
#47 =( GEOMETRIC_REPRESENTATION_CONTEXT ( 3 ) GLOBAL_UNCERTAINTY_ASSIGNED_CONTEXT ( ( #123 ) ) GLOBAL_UNIT_ASSIGNED_CONTEXT ( ( #196, #191, #80 ) ) REPRESENTATION_CONTEXT ( 'NONE', 'WORKASPACE' ) );
#48 = CYLINDRICAL_SURFACE ( 'NONE', #113, 4.999999999999993783 ) ;
#49 = VERTEX_POINT ( 'NONE', #84 ) ;
#50 = DIRECTION ( 'NONE',  ( -4.275831445896958607E-31, -1.000000000000000000, -1.224646799147353207E-16 ) ) ;
#51 = FACE_BOUND ( 'NONE', #62, .T. ) ;
#52 = ADVANCED_FACE ( 'NONE', ( #146 ), #66, .F. ) ;
#53 = CONICAL_SURFACE ( 'NONE', #110, 4.500000000000000888, 0.7853981633974344012 ) ;
#54 = PERSON_AND_ORGANIZATION_ROLE ( 'classification_officer' ) ;
#55 = CALENDAR_DATE ( 2021, 9, 11 ) ;
#56 = DATE_AND_TIME ( #169, #96 ) ;
#57 = COORDINATED_UNIVERSAL_TIME_OFFSET ( 1, 0, .AHEAD. ) ;
#58 = CIRCLE ( 'NONE', #178, 4.500000000000000888 ) ;
#59 = ADVANCED_FACE ( 'NONE', ( #5, #51 ), #53, .T. ) ;
#60 = EDGE_LOOP ( 'NONE', ( #175 ) ) ;
#61 = CC_DESIGN_PERSON_AND_ORGANIZATION_ASSIGNMENT ( #184, #185, ( #193 ) ) ;
#62 = EDGE_LOOP ( 'NONE', ( #75 ) ) ;
#63 = AXIS2_PLACEMENT_3D ( 'NONE', #195, #81, #180 ) ;
#64 = CARTESIAN_POINT ( 'NONE',  ( 7.681258945454893382E-14, 4.999999999999992006, 22.00000000000000000 ) ) ;
#65 = DIRECTION ( 'NONE',  ( -3.491481338843133355E-15, 1.224646799147353207E-16, -1.000000000000000000 ) ) ;
#66 = PLANE ( 'NONE',  #63 ) ;
#67 = VERTEX_POINT ( 'NONE', #99 ) ;
#68 = CARTESIAN_POINT ( 'NONE',  ( 0.0000000000000000000, 0.0000000000000000000, 0.0000000000000000000 ) ) ;
#69 = PERSON_AND_ORGANIZATION ( #97, #88 ) ;
#70 = APPLICATION_CONTEXT ( 'configuration controlled 3d designs of mechanical parts and assemblies' ) ;
#71 = APPLICATION_PROTOCOL_DEFINITION ( 'international standard', 'config_control_design', 1994, #24 ) ;
#72 = COORDINATED_UNIVERSAL_TIME_OFFSET ( 1, 0, .AHEAD. ) ;
#73 = APPROVAL_DATE_TIME ( #43, #12 ) ;
#74 = ORIENTED_EDGE ( 'NONE', *, *, #39, .T. ) ;
#75 = ORIENTED_EDGE ( 'NONE', *, *, #45, .T. ) ;
#76 = MANIFOLD_SOLID_BREP ( 'Corps-Déplacer/Copier1[2]', #150 ) ;
#77 = ORIENTED_EDGE ( 'NONE', *, *, #114, .F. ) ;
#78 = AXIS2_PLACEMENT_3D ( 'NONE', #116, #83, #50 ) ;
#79 = ADVANCED_FACE ( 'NONE', ( #19 ), #119, .F. ) ;
#80 =( NAMED_UNIT ( * ) SI_UNIT ( $, .STERADIAN. ) SOLID_ANGLE_UNIT ( ) );
#81 = DIRECTION ( 'NONE',  ( -3.491481338843133355E-15, 1.224646799147353207E-16, -1.000000000000000000 ) ) ;
#82 = CC_DESIGN_PERSON_AND_ORGANIZATION_ASSIGNMENT ( #108, #44, ( #193 ) ) ;
#83 = DIRECTION ( 'NONE',  ( 3.491481338843133355E-15, -1.224646799147353207E-16, 1.000000000000000000 ) ) ;
#84 = CARTESIAN_POINT ( 'NONE',  ( 4.275753076543797008E-31, 4.999999999999992006, 1.224624353272506412E-16 ) ) ;
#85 = DIRECTION ( 'NONE',  ( 3.491481338843133355E-15, -1.224646799147353207E-16, 1.000000000000000000 ) ) ;
#86 = PERSON_AND_ORGANIZATION ( #97, #88 ) ;
#87 = ADVANCED_FACE ( 'NONE', ( #18 ), #40, .F. ) ;
#88 = ORGANIZATION ( 'UNSPECIFIED', 'UNSPECIFIED', '' ) ;
#89 = DESIGN_CONTEXT ( 'detailed design', #24, 'design' ) ;
#90 = CARTESIAN_POINT ( 'NONE',  ( 0.0000000000000000000, 0.0000000000000000000, 0.0000000000000000000 ) ) ;
#91 = CALENDAR_DATE ( 2021, 9, 11 ) ;
#92 = AXIS2_PLACEMENT_3D ( 'NONE', #120, #194, #101 ) ;
#93 = DIRECTION ( 'NONE',  ( -3.491481338843133355E-15, 1.224646799147353207E-16, -1.000000000000000000 ) ) ;
#94 = CARTESIAN_POINT ( 'NONE',  ( 0.0000000000000000000, 0.0000000000000000000, 0.0000000000000000000 ) ) ;
#95 = ADVANCED_FACE ( 'NONE', ( #181 ), #143, .T. ) ;
#96 = LOCAL_TIME ( 9, 38, 48.00000000000000000, #106 ) ;
#97 = PERSON ( 'UNSPECIFIED', 'UNSPECIFIED', 'UNSPECIFIED', ('UNSPECIFIED'), ('UNSPECIFIED'), ('UNSPECIFIED') ) ;
#98 = EDGE_LOOP ( 'NONE', ( #14 ) ) ;
#99 = CARTESIAN_POINT ( 'NONE',  ( 2.513866563967056016E-13, 4.499999999999992006, 72.00000000000000000 ) ) ;
#100 = APPROVAL_PERSON_ORGANIZATION ( #122, #12, #23 ) ;
#101 = DIRECTION ( 'NONE',  ( -4.275831445896958607E-31, -1.000000000000000000, -1.224646799147353207E-16 ) ) ;
#102 = VERTEX_POINT ( 'NONE', #64 ) ;
#103 = CARTESIAN_POINT ( 'NONE',  ( 2.496409157272839907E-13, -8.756224613903572559E-15, 71.49999999999998579 ) ) ;
#104 = DATE_TIME_ROLE ( 'classification_date' ) ;
#105 = APPROVAL_PERSON_ORGANIZATION ( #27, #1, #149 ) ;
#106 = COORDINATED_UNIVERSAL_TIME_OFFSET ( 1, 0, .AHEAD. ) ;
#107 = ADVANCED_BREP_SHAPE_REPRESENTATION ( '57075', ( #151, #76, #138 ), #47 ) ;
#108 = PERSON_AND_ORGANIZATION ( #97, #88 ) ;
#109 = PERSON_AND_ORGANIZATION ( #97, #88 ) ;
#110 = AXIS2_PLACEMENT_3D ( 'NONE', #192, #37, #132 ) ;
#111 = APPROVAL ( #167, 'UNSPECIFIED' ) ;
#112 = EDGE_LOOP ( 'NONE', ( #74 ) ) ;
#113 = AXIS2_PLACEMENT_3D ( 'NONE', #94, #115, #46 ) ;
#114 = EDGE_CURVE ( 'NONE', #133, #133, #168, .T. ) ;
#115 = DIRECTION ( 'NONE',  ( -3.491481338843133355E-15, 1.224646799147353207E-16, -1.000000000000000000 ) ) ;
#116 = CARTESIAN_POINT ( 'NONE',  ( -8.551702076470480934E-31, 2.999533309458101739E-32, -2.449304821232125005E-16 ) ) ;
#117 = CARTESIAN_POINT ( 'NONE',  ( 7.681258945454893382E-14, 4.999999999999992006, 22.00000000000000000 ) ) ;
#118 = AXIS2_PLACEMENT_3D ( 'NONE', #161, #144, #38 ) ;
#119 = PLANE ( 'NONE',  #16 ) ;
#120 = CARTESIAN_POINT ( 'NONE',  ( 7.681258945454893382E-14, 3.749399456654636904E-32, 22.00000000000000000 ) ) ;
#121 = EDGE_CURVE ( 'NONE', #49, #49, #174, .T. ) ;
#122 = PERSON_AND_ORGANIZATION ( #97, #88 ) ;
#123 = UNCERTAINTY_MEASURE_WITH_UNIT (LENGTH_MEASURE( 1.000000000000000082E-05 ), #196, 'distance_accuracy_value', 'NONE');
#124 = APPLICATION_PROTOCOL_DEFINITION ( 'international standard', 'config_control_design', 1994, #70 ) ;
#125 = EDGE_CURVE ( 'NONE', #35, #35, #30, .T. ) ;
#126 = CC_DESIGN_APPROVAL ( #111, ( #145 ) ) ;
#127 = COORDINATED_UNIVERSAL_TIME_OFFSET ( 1, 0, .AHEAD. ) ;
#128 = LOCAL_TIME ( 9, 38, 48.00000000000000000, #57 ) ;
#129 = ORIENTED_EDGE ( 'NONE', *, *, #39, .F. ) ;
#130 = CC_DESIGN_DATE_AND_TIME_ASSIGNMENT ( #28, #104, ( #145 ) ) ;
#131 = EDGE_LOOP ( 'NONE', ( #77 ) ) ;
#132 = DIRECTION ( 'NONE',  ( 0.0000000000000000000, 1.000000000000000000, 0.0000000000000000000 ) ) ;
#133 = VERTEX_POINT ( 'NONE', #162 ) ;
#134 = SHAPE_DEFINITION_REPRESENTATION ( #189, #107 ) ;
#135 = DIRECTION ( 'NONE',  ( 0.0000000000000000000, 0.0000000000000000000, 1.000000000000000000 ) ) ;
#136 = SECURITY_CLASSIFICATION_LEVEL ( 'unclassified' ) ;
#137 = LOCAL_TIME ( 9, 38, 48.00000000000000000, #127 ) ;
#138 = AXIS2_PLACEMENT_3D ( 'NONE', #90, #135, #6 ) ;
#139 = CARTESIAN_POINT ( 'NONE',  ( 2.513866563967056016E-13, -8.817456953860941711E-15, 72.00000000000000000 ) ) ;
#140 = ORIENTED_EDGE ( 'NONE', *, *, #121, .F. ) ;
#141 = CIRCLE ( 'NONE', #197, 4.999999999999994671 ) ;
#142 = DIRECTION ( 'NONE',  ( 0.0000000000000000000, 1.000000000000000000, 0.0000000000000000000 ) ) ;
#143 = PLANE ( 'NONE',  #92 ) ;
#144 = DIRECTION ( 'NONE',  ( -3.491481338843133355E-15, 1.224646799147353207E-16, -1.000000000000000000 ) ) ;
#145 = SECURITY_CLASSIFICATION ( '', '', #136 ) ;
#146 = FACE_OUTER_BOUND ( 'NONE', #173, .T. ) ;
#147 = ADVANCED_FACE ( 'NONE', ( #4, #179 ), #160, .T. ) ;
#148 = DIRECTION ( 'NONE',  ( -4.275831445896958607E-31, -1.000000000000000000, -1.224646799147353207E-16 ) ) ;
#149 = APPROVAL_ROLE ( '' ) ;
#150 = CLOSED_SHELL ( 'NONE', ( #87, #22, #95 ) ) ;
#151 = MANIFOLD_SOLID_BREP ( 'Corps-Déplacer/Copier1[1]', #7 ) ;
#152 = MECHANICAL_CONTEXT ( 'NONE', #70, 'mechanical' ) ;
#153 = APPROVAL_STATUS ( 'not_yet_approved' ) ;
#154 = COORDINATED_UNIVERSAL_TIME_OFFSET ( 1, 0, .AHEAD. ) ;
#155 = CARTESIAN_POINT ( 'NONE',  ( 7.681258945454893382E-14, -2.694222958124176809E-15, 22.00000000000000000 ) ) ;
#156 = CC_DESIGN_PERSON_AND_ORGANIZATION_ASSIGNMENT ( #9, #54, ( #145 ) ) ;
#157 = ORIENTED_EDGE ( 'NONE', *, *, #114, .T. ) ;
#158 = ORIENTED_EDGE ( 'NONE', *, *, #45, .F. ) ;
#159 = EDGE_LOOP ( 'NONE', ( #31 ) ) ;
#160 = CYLINDRICAL_SURFACE ( 'NONE', #26, 4.999999999999997335 ) ;
#161 = CARTESIAN_POINT ( 'NONE',  ( -1.710340415294096187E-30, 5.999066618916203478E-32, -4.898609642464250010E-16 ) ) ;
#162 = CARTESIAN_POINT ( 'NONE',  ( 2.496409157272839907E-13, 4.999999999999992006, 71.49999999999998579 ) ) ;
#163 = APPROVAL_PERSON_ORGANIZATION ( #109, #111, #25 ) ;
#164 = PRODUCT ( '57075', '57075', '', ( #152 ) ) ;
#165 = DIRECTION ( 'NONE',  ( 4.275831445896959482E-31, 1.000000000000000000, 1.224646799147353207E-16 ) ) ;
#166 = PERSON_AND_ORGANIZATION_ROLE ( 'design_owner' ) ;
#167 = APPROVAL_STATUS ( 'not_yet_approved' ) ;
#168 = CIRCLE ( 'NONE', #3, 5.000000000000000888 ) ;
#169 = CALENDAR_DATE ( 2021, 9, 11 ) ;
#170 = CALENDAR_DATE ( 2021, 9, 11 ) ;
#171 = PRODUCT_RELATED_PRODUCT_CATEGORY ( 'detail', '', ( #164 ) ) ;
#172 = DIRECTION ( 'NONE',  ( 0.0000000000000000000, 1.000000000000000000, 0.0000000000000000000 ) ) ;
#173 = EDGE_LOOP ( 'NONE', ( #158 ) ) ;
#174 = CIRCLE ( 'NONE', #118, 4.999999999999992006 ) ;
#175 = ORIENTED_EDGE ( 'NONE', *, *, #125, .F. ) ;
#176 = DIRECTION ( 'NONE',  ( -3.491481338843133355E-15, 1.224646799147353207E-16, -1.000000000000000000 ) ) ;
#177 = CC_DESIGN_PERSON_AND_ORGANIZATION_ASSIGNMENT ( #86, #166, ( #164 ) ) ;
#178 = AXIS2_PLACEMENT_3D ( 'NONE', #139, #93, #21 ) ;
#179 = FACE_OUTER_BOUND ( 'NONE', #188, .T. ) ;
#180 = DIRECTION ( 'NONE',  ( 4.275831445896958607E-31, 1.000000000000000000, 1.224646799147353207E-16 ) ) ;
#181 = FACE_OUTER_BOUND ( 'NONE', #15, .T. ) ;
#182 = DIRECTION ( 'NONE',  ( -3.491481338843133355E-15, 1.224646799147353207E-16, -1.000000000000000000 ) ) ;
#183 = LOCAL_TIME ( 9, 38, 48.00000000000000000, #72 ) ;
#184 = PERSON_AND_ORGANIZATION ( #97, #88 ) ;
#185 = PERSON_AND_ORGANIZATION_ROLE ( 'design_supplier' ) ;
#186 = DATE_AND_TIME ( #55, #137 ) ;
#187 = FACE_OUTER_BOUND ( 'NONE', #32, .T. ) ;
#188 = EDGE_LOOP ( 'NONE', ( #157 ) ) ;
#189 = PRODUCT_DEFINITION_SHAPE ( 'NONE', 'NONE',  #10 ) ;
#190 = FACE_OUTER_BOUND ( 'NONE', #112, .T. ) ;
#191 =( NAMED_UNIT ( * ) PLANE_ANGLE_UNIT ( ) SI_UNIT ( $, .RADIAN. ) );
#192 = CARTESIAN_POINT ( 'NONE',  ( 2.513866563967056016E-13, -8.817456953860941711E-15, 72.00000000000000000 ) ) ;
#193 = PRODUCT_DEFINITION_FORMATION_WITH_SPECIFIED_SOURCE ( 'ANY', '', #164, .NOT_KNOWN. ) ;
#194 = DIRECTION ( 'NONE',  ( 3.491481338843133355E-15, -1.224646799147353207E-16, 1.000000000000000000 ) ) ;
#195 = CARTESIAN_POINT ( 'NONE',  ( 2.513866563967056016E-13, 3.374459510989167028E-32, 72.00000000000000000 ) ) ;
#196 =( LENGTH_UNIT ( ) NAMED_UNIT ( * ) SI_UNIT ( .MILLI., .METRE. ) );
#197 = AXIS2_PLACEMENT_3D ( 'NONE', #155, #34, #172 ) ;
#198 = AXIS2_PLACEMENT_3D ( 'NONE', #17, #176, #142 ) ;
#199 = APPROVAL_DATE_TIME ( #186, #1 ) ;
#200 = APPROVAL_STATUS ( 'not_yet_approved' ) ;
#201 = CC_DESIGN_PERSON_AND_ORGANIZATION_ASSIGNMENT ( #69, #42, ( #10 ) ) ;
#202 = CC_DESIGN_APPROVAL ( #1, ( #193 ) ) ;
#203 = CC_DESIGN_DATE_AND_TIME_ASSIGNMENT ( #56, #41, ( #10 ) ) ;
ENDSEC;
END-ISO-10303-21;
