ISO-10303-21;
HEADER;
FILE_DESCRIPTION (( 'STEP AP203' ),
    '1' );
FILE_NAME ('57073.step',
    '2021-11-09T08:38:48',
    ( '' ),
    ( '' ),
    'SwSTEP 2.0',
    'SolidWorks 2019',
    '' );
FILE_SCHEMA (( 'CONFIG_CONTROL_DESIGN' ));
ENDSEC;

DATA;
#1 = APPROVAL_ROLE ( '' ) ;
#2 = ORIENTED_EDGE ( 'NONE', *, *, #98, .T. ) ;
#3 = DIRECTION ( 'NONE',  ( 3.491481338843133355E-15, -1.224646799147353207E-16, 1.000000000000000000 ) ) ;
#4 = CC_DESIGN_APPROVAL ( #182, ( #135 ) ) ;
#5 = DIRECTION ( 'NONE',  ( 4.275831445896958607E-31, 1.000000000000000000, 1.224646799147353207E-16 ) ) ;
#6 = FACE_OUTER_BOUND ( 'NONE', #138, .T. ) ;
#7 = ADVANCED_FACE ( 'NONE', ( #83, #197 ), #84, .T. ) ;
#8 = CARTESIAN_POINT ( 'NONE',  ( 6.982962677686266711E-14, -2.449293598294706513E-15, 20.00000000000000000 ) ) ;
#9 = CARTESIAN_POINT ( 'NONE',  ( 2.199633243471174140E-13, 3.499999999999993339, 63.00000000000000000 ) ) ;
#10 = CLOSED_SHELL ( 'NONE', ( #66, #109, #140, #186 ) ) ;
#11 = APPROVAL ( #152, 'UNSPECIFIED' ) ;
#12 = CALENDAR_DATE ( 2021, 9, 11 ) ;
#13 = DATE_TIME_ROLE ( 'creation_date' ) ;
#14 = PERSON_AND_ORGANIZATION ( #146, #123 ) ;
#15 = MECHANICAL_CONTEXT ( 'NONE', #68, 'mechanical' ) ;
#16 = APPLICATION_PROTOCOL_DEFINITION ( 'international standard', 'config_control_design', 1994, #68 ) ;
#17 = CIRCLE ( 'NONE', #166, 3.500000000000000888 ) ;
#18 = FACE_OUTER_BOUND ( 'NONE', #161, .T. ) ;
#19 = ADVANCED_BREP_SHAPE_REPRESENTATION ( '57073', ( #160, #97, #150 ), #183 ) ;
#20 = CARTESIAN_POINT ( 'NONE',  ( 6.982962677686266711E-14, 2.999519565323708100E-32, 20.00000000000000000 ) ) ;
#21 = DIRECTION ( 'NONE',  ( 0.0000000000000000000, 1.000000000000000000, 0.0000000000000000000 ) ) ;
#22 = CARTESIAN_POINT ( 'NONE',  ( 6.982962677686266711E-14, 2.999519565323708100E-32, 20.00000000000000000 ) ) ;
#23 = CARTESIAN_POINT ( 'NONE',  ( 6.982962677686266711E-14, 3.999999999999993339, 20.00000000000000000 ) ) ;
#24 = LOCAL_TIME ( 9, 38, 48.00000000000000000, #92 ) ;
#25 = LOCAL_TIME ( 9, 38, 48.00000000000000000, #63 ) ;
#26 = CC_DESIGN_DATE_AND_TIME_ASSIGNMENT ( #172, #32, ( #139 ) ) ;
#27 = DIRECTION ( 'NONE',  ( 1.000000000000000000, 0.0000000000000000000, 0.0000000000000000000 ) ) ;
#28 = PERSON_AND_ORGANIZATION ( #146, #123 ) ;
#29 = ADVANCED_FACE ( 'NONE', ( #72 ), #41, .F. ) ;
#30 = PERSON_AND_ORGANIZATION_ROLE ( 'design_owner' ) ;
#31 = CIRCLE ( 'NONE', #95, 3.999999999999995559 ) ;
#32 = DATE_TIME_ROLE ( 'classification_date' ) ;
#33 = DIRECTION ( 'NONE',  ( -3.491481338843133355E-15, 1.224646799147353207E-16, -1.000000000000000000 ) ) ;
#34 = APPROVAL_DATE_TIME ( #154, #39 ) ;
#35 = EDGE_CURVE ( 'NONE', #120, #120, #17, .T. ) ;
#36 = APPROVAL_PERSON_ORGANIZATION ( #203, #11, #1 ) ;
#37 = DIRECTION ( 'NONE',  ( 4.275831445896958607E-31, 1.000000000000000000, 1.224646799147353207E-16 ) ) ;
#38 = DIRECTION ( 'NONE',  ( -3.491481338843133355E-15, 1.224646799147353207E-16, -1.000000000000000000 ) ) ;
#39 = APPROVAL ( #153, 'UNSPECIFIED' ) ;
#40 = ORIENTED_EDGE ( 'NONE', *, *, #35, .F. ) ;
#41 = PLANE ( 'NONE',  #168 ) ;
#42 = CARTESIAN_POINT ( 'NONE',  ( 6.982962677686266711E-14, 3.999999999999993339, 20.00000000000000000 ) ) ;
#43 = AXIS2_PLACEMENT_3D ( 'NONE', #65, #33, #156 ) ;
#44 = APPROVAL_DATE_TIME ( #74, #182 ) ;
#45 =( NAMED_UNIT ( * ) PLANE_ANGLE_UNIT ( ) SI_UNIT ( $, .RADIAN. ) );
#46 = EDGE_LOOP ( 'NONE', ( #157 ) ) ;
#47 = COORDINATED_UNIVERSAL_TIME_OFFSET ( 1, 0, .AHEAD. ) ;
#48 = ORIENTED_EDGE ( 'NONE', *, *, #51, .F. ) ;
#49 = DATE_AND_TIME ( #169, #24 ) ;
#50 = EDGE_LOOP ( 'NONE', ( #187 ) ) ;
#51 = EDGE_CURVE ( 'NONE', #181, #181, #31, .T. ) ;
#52 = DIRECTION ( 'NONE',  ( -3.491481338843133355E-15, 1.224646799147353207E-16, -1.000000000000000000 ) ) ;
#53 = LOCAL_TIME ( 9, 38, 48.00000000000000000, #47 ) ;
#54 = EDGE_LOOP ( 'NONE', ( #178 ) ) ;
#55 = PRODUCT_RELATED_PRODUCT_CATEGORY ( 'detail', '', ( #90 ) ) ;
#56 = DIRECTION ( 'NONE',  ( -3.491481338843133355E-15, 1.224646799147353207E-16, -1.000000000000000000 ) ) ;
#57 = DIRECTION ( 'NONE',  ( 0.0000000000000000000, 1.000000000000000000, 0.0000000000000000000 ) ) ;
#58 = CC_DESIGN_APPROVAL ( #39, ( #139 ) ) ;
#59 = VERTEX_POINT ( 'NONE', #164 ) ;
#60 = CC_DESIGN_APPROVAL ( #11, ( #200 ) ) ;
#61 = COORDINATED_UNIVERSAL_TIME_OFFSET ( 1, 0, .AHEAD. ) ;
#62 = CARTESIAN_POINT ( 'NONE',  ( 0.0000000000000000000, 0.0000000000000000000, 0.0000000000000000000 ) ) ;
#63 = COORDINATED_UNIVERSAL_TIME_OFFSET ( 1, 0, .AHEAD. ) ;
#64 = CARTESIAN_POINT ( 'NONE',  ( 0.0000000000000000000, 0.0000000000000000000, 0.0000000000000000000 ) ) ;
#65 = CARTESIAN_POINT ( 'NONE',  ( 2.182175836776958284E-13, -7.654042494670957804E-15, 62.50000000000000000 ) ) ;
#66 = ADVANCED_FACE ( 'NONE', ( #18 ), #101, .F. ) ;
#67 = CIRCLE ( 'NONE', #202, 3.999999999999995559 ) ;
#68 = APPLICATION_CONTEXT ( 'configuration controlled 3d designs of mechanical parts and assemblies' ) ;
#69 = DIRECTION ( 'NONE',  ( -4.275831445896958607E-31, -1.000000000000000000, -1.224646799147353207E-16 ) ) ;
#70 = FACE_OUTER_BOUND ( 'NONE', #190, .T. ) ;
#71 = PRODUCT_DEFINITION_SHAPE ( 'NONE', 'NONE',  #200 ) ;
#72 = FACE_OUTER_BOUND ( 'NONE', #54, .T. ) ;
#73 = CC_DESIGN_PERSON_AND_ORGANIZATION_ASSIGNMENT ( #14, #134, ( #135 ) ) ;
#74 = DATE_AND_TIME ( #94, #53 ) ;
#75 = APPROVAL_PERSON_ORGANIZATION ( #99, #39, #78 ) ;
#76 = CALENDAR_DATE ( 2021, 9, 11 ) ;
#77 = APPLICATION_PROTOCOL_DEFINITION ( 'international standard', 'config_control_design', 1994, #141 ) ;
#78 = APPROVAL_ROLE ( '' ) ;
#79 =( NAMED_UNIT ( * ) SI_UNIT ( $, .STERADIAN. ) SOLID_ANGLE_UNIT ( ) );
#80 = CONICAL_SURFACE ( 'NONE', #108, 3.500000000000000888, 0.7853981633974479459 ) ;
#81 = DIRECTION ( 'NONE',  ( -3.491481338843133355E-15, 1.224646799147353207E-16, -1.000000000000000000 ) ) ;
#82 = CC_DESIGN_PERSON_AND_ORGANIZATION_ASSIGNMENT ( #173, #30, ( #90 ) ) ;
#83 = FACE_OUTER_BOUND ( 'NONE', #192, .T. ) ;
#84 = CYLINDRICAL_SURFACE ( 'NONE', #110, 3.999999999999994671 ) ;
#85 = DIRECTION ( 'NONE',  ( 0.0000000000000000000, 1.000000000000000000, 0.0000000000000000000 ) ) ;
#86 = DIRECTION ( 'NONE',  ( -3.491481338843133355E-15, 1.224646799147353207E-16, -1.000000000000000000 ) ) ;
#87 = CC_DESIGN_PERSON_AND_ORGANIZATION_ASSIGNMENT ( #188, #111, ( #139 ) ) ;
#88 = CARTESIAN_POINT ( 'NONE',  ( 2.137876538271896752E-31, 3.999999999999993339, 6.123121766362532060E-17 ) ) ;
#89 = AXIS2_PLACEMENT_3D ( 'NONE', #148, #56, #118 ) ;
#90 = PRODUCT ( '57073', '57073', '', ( #15 ) ) ;
#91 = CC_DESIGN_DATE_AND_TIME_ASSIGNMENT ( #124, #13, ( #200 ) ) ;
#92 = COORDINATED_UNIVERSAL_TIME_OFFSET ( 1, 0, .AHEAD. ) ;
#93 = EDGE_LOOP ( 'NONE', ( #103 ) ) ;
#94 = CALENDAR_DATE ( 2021, 9, 11 ) ;
#95 = AXIS2_PLACEMENT_3D ( 'NONE', #8, #86, #85 ) ;
#96 = DIRECTION ( 'NONE',  ( 0.0000000000000000000, 0.0000000000000000000, 1.000000000000000000 ) ) ;
#97 = MANIFOLD_SOLID_BREP ( 'Corps-Déplacer/Copier1[2]', #180 ) ;
#98 = EDGE_CURVE ( 'NONE', #199, #199, #67, .T. ) ;
#99 = PERSON_AND_ORGANIZATION ( #146, #123 ) ;
#100 = CALENDAR_DATE ( 2021, 9, 11 ) ;
#101 = PLANE ( 'NONE',  #162 ) ;
#102 = FACE_OUTER_BOUND ( 'NONE', #104, .T. ) ;
#103 = ORIENTED_EDGE ( 'NONE', *, *, #35, .T. ) ;
#104 = EDGE_LOOP ( 'NONE', ( #48 ) ) ;
#105 = AXIS2_PLACEMENT_3D ( 'NONE', #163, #176, #37 ) ;
#106 = PLANE ( 'NONE',  #105 ) ;
#107 = VERTEX_POINT ( 'NONE', #88 ) ;
#108 = AXIS2_PLACEMENT_3D ( 'NONE', #174, #52, #57 ) ;
#109 = ADVANCED_FACE ( 'NONE', ( #6, #70 ), #144, .T. ) ;
#110 = AXIS2_PLACEMENT_3D ( 'NONE', #64, #194, #177 ) ;
#111 = PERSON_AND_ORGANIZATION_ROLE ( 'classification_officer' ) ;
#112 = APPROVAL_STATUS ( 'not_yet_approved' ) ;
#113 = ORIENTED_EDGE ( 'NONE', *, *, #122, .F. ) ;
#114 = FACE_OUTER_BOUND ( 'NONE', #170, .T. ) ;
#115 = AXIS2_PLACEMENT_3D ( 'NONE', #117, #131, #5 ) ;
#116 = DIRECTION ( 'NONE',  ( 3.491481338843133355E-15, -1.224646799147353207E-16, 1.000000000000000000 ) ) ;
#117 = CARTESIAN_POINT ( 'NONE',  ( -1.496544924531590746E-30, 5.249172983450884319E-32, -4.286275019953151734E-16 ) ) ;
#118 = DIRECTION ( 'NONE',  ( 4.275831445896958607E-31, 1.000000000000000000, 1.224646799147353207E-16 ) ) ;
#119 = AXIS2_PLACEMENT_3D ( 'NONE', #20, #129, #142 ) ;
#120 = VERTEX_POINT ( 'NONE', #9 ) ;
#121 = LOCAL_TIME ( 9, 38, 48.00000000000000000, #61 ) ;
#122 = EDGE_CURVE ( 'NONE', #107, #107, #132, .T. ) ;
#123 = ORGANIZATION ( 'UNSPECIFIED', 'UNSPECIFIED', '' ) ;
#124 = DATE_AND_TIME ( #12, #25 ) ;
#125 = SECURITY_CLASSIFICATION_LEVEL ( 'unclassified' ) ;
#126 = ORIENTED_EDGE ( 'NONE', *, *, #98, .F. ) ;
#127 = PERSON_AND_ORGANIZATION ( #146, #123 ) ;
#128 = FACE_OUTER_BOUND ( 'NONE', #46, .T. ) ;
#129 = DIRECTION ( 'NONE',  ( 3.491481338843133355E-15, -1.224646799147353207E-16, 1.000000000000000000 ) ) ;
#130 = DIRECTION ( 'NONE',  ( 0.0000000000000000000, 1.000000000000000000, 0.0000000000000000000 ) ) ;
#131 = DIRECTION ( 'NONE',  ( -3.491481338843133355E-15, 1.224646799147353207E-16, -1.000000000000000000 ) ) ;
#132 = CIRCLE ( 'NONE', #115, 3.999999999999993339 ) ;
#133 = DESIGN_CONTEXT ( 'detailed design', #141, 'design' ) ;
#134 = PERSON_AND_ORGANIZATION_ROLE ( 'creator' ) ;
#135 = PRODUCT_DEFINITION_FORMATION_WITH_SPECIFIED_SOURCE ( 'ANY', '', #90, .NOT_KNOWN. ) ;
#136 = PERSON_AND_ORGANIZATION_ROLE ( 'creator' ) ;
#137 =( LENGTH_UNIT ( ) NAMED_UNIT ( * ) SI_UNIT ( .MILLI., .METRE. ) );
#138 = EDGE_LOOP ( 'NONE', ( #126 ) ) ;
#139 = SECURITY_CLASSIFICATION ( '', '', #125 ) ;
#140 = ADVANCED_FACE ( 'NONE', ( #128, #198 ), #80, .T. ) ;
#141 = APPLICATION_CONTEXT ( 'configuration controlled 3d designs of mechanical parts and assemblies' ) ;
#142 = DIRECTION ( 'NONE',  ( -4.275831445896958607E-31, -1.000000000000000000, -1.224646799147353207E-16 ) ) ;
#143 = CARTESIAN_POINT ( 'NONE',  ( 2.199633243471174140E-13, -7.715274834628325378E-15, 63.00000000000000000 ) ) ;
#144 = CYLINDRICAL_SURFACE ( 'NONE', #89, 3.999999999999998224 ) ;
#145 = LOCAL_TIME ( 9, 38, 48.00000000000000000, #191 ) ;
#146 = PERSON ( 'UNSPECIFIED', 'UNSPECIFIED', 'UNSPECIFIED', ('UNSPECIFIED'), ('UNSPECIFIED'), ('UNSPECIFIED') ) ;
#147 = CARTESIAN_POINT ( 'NONE',  ( 6.982962677686266711E-14, -2.449293598294706513E-15, 20.00000000000000000 ) ) ;
#148 = CARTESIAN_POINT ( 'NONE',  ( 0.0000000000000000000, 0.0000000000000000000, 0.0000000000000000000 ) ) ;
#149 = UNCERTAINTY_MEASURE_WITH_UNIT (LENGTH_MEASURE( 1.000000000000000082E-05 ), #137, 'distance_accuracy_value', 'NONE');
#150 = AXIS2_PLACEMENT_3D ( 'NONE', #62, #96, #27 ) ;
#151 = PERSON_AND_ORGANIZATION ( #146, #123 ) ;
#152 = APPROVAL_STATUS ( 'not_yet_approved' ) ;
#153 = APPROVAL_STATUS ( 'not_yet_approved' ) ;
#154 = DATE_AND_TIME ( #100, #145 ) ;
#155 = EDGE_CURVE ( 'NONE', #59, #59, #189, .T. ) ;
#156 = DIRECTION ( 'NONE',  ( 0.0000000000000000000, 1.000000000000000000, 0.0000000000000000000 ) ) ;
#157 = ORIENTED_EDGE ( 'NONE', *, *, #155, .F. ) ;
#158 = CC_DESIGN_PERSON_AND_ORGANIZATION_ASSIGNMENT ( #127, #201, ( #135 ) ) ;
#159 = DIRECTION ( 'NONE',  ( -4.275831445896958607E-31, -1.000000000000000000, -1.224646799147353207E-16 ) ) ;
#160 = MANIFOLD_SOLID_BREP ( 'Corps-Déplacer/Copier1[1]', #10 ) ;
#161 = EDGE_LOOP ( 'NONE', ( #2 ) ) ;
#162 = AXIS2_PLACEMENT_3D ( 'NONE', #22, #3, #159 ) ;
#163 = CARTESIAN_POINT ( 'NONE',  ( 2.199633243471174140E-13, 2.624579619658239866E-32, 63.00000000000000000 ) ) ;
#164 = CARTESIAN_POINT ( 'NONE',  ( 2.182175836776958284E-13, 3.999999999999993339, 62.50000000000000000 ) ) ;
#165 = ADVANCED_FACE ( 'NONE', ( #102 ), #179, .T. ) ;
#166 = AXIS2_PLACEMENT_3D ( 'NONE', #143, #38, #130 ) ;
#167 = CC_DESIGN_PERSON_AND_ORGANIZATION_ASSIGNMENT ( #151, #136, ( #200 ) ) ;
#168 = AXIS2_PLACEMENT_3D ( 'NONE', #196, #116, #69 ) ;
#169 = CALENDAR_DATE ( 2021, 9, 11 ) ;
#170 = EDGE_LOOP ( 'NONE', ( #40 ) ) ;
#171 = APPROVAL_ROLE ( '' ) ;
#172 = DATE_AND_TIME ( #76, #121 ) ;
#173 = PERSON_AND_ORGANIZATION ( #146, #123 ) ;
#174 = CARTESIAN_POINT ( 'NONE',  ( 2.199633243471174140E-13, -7.715274834628325378E-15, 63.00000000000000000 ) ) ;
#175 = APPROVAL_PERSON_ORGANIZATION ( #28, #182, #171 ) ;
#176 = DIRECTION ( 'NONE',  ( -3.491481338843133355E-15, 1.224646799147353207E-16, -1.000000000000000000 ) ) ;
#177 = DIRECTION ( 'NONE',  ( 4.275831445896959482E-31, 1.000000000000000000, 1.224646799147353454E-16 ) ) ;
#178 = ORIENTED_EDGE ( 'NONE', *, *, #122, .T. ) ;
#179 = PLANE ( 'NONE',  #119 ) ;
#180 = CLOSED_SHELL ( 'NONE', ( #29, #7, #165 ) ) ;
#181 = VERTEX_POINT ( 'NONE', #23 ) ;
#182 = APPROVAL ( #112, 'UNSPECIFIED' ) ;
#183 =( GEOMETRIC_REPRESENTATION_CONTEXT ( 3 ) GLOBAL_UNCERTAINTY_ASSIGNED_CONTEXT ( ( #149 ) ) GLOBAL_UNIT_ASSIGNED_CONTEXT ( ( #137, #45, #79 ) ) REPRESENTATION_CONTEXT ( 'NONE', 'WORKASPACE' ) );
#184 = ORIENTED_EDGE ( 'NONE', *, *, #155, .T. ) ;
#185 = APPROVAL_DATE_TIME ( #49, #11 ) ;
#186 = ADVANCED_FACE ( 'NONE', ( #114 ), #106, .F. ) ;
#187 = ORIENTED_EDGE ( 'NONE', *, *, #51, .T. ) ;
#188 = PERSON_AND_ORGANIZATION ( #146, #123 ) ;
#189 = CIRCLE ( 'NONE', #43, 4.000000000000000888 ) ;
#190 = EDGE_LOOP ( 'NONE', ( #184 ) ) ;
#191 = COORDINATED_UNIVERSAL_TIME_OFFSET ( 1, 0, .AHEAD. ) ;
#192 = EDGE_LOOP ( 'NONE', ( #113 ) ) ;
#193 = SHAPE_DEFINITION_REPRESENTATION ( #71, #19 ) ;
#194 = DIRECTION ( 'NONE',  ( -3.491481338843133355E-15, 1.224646799147353207E-16, -1.000000000000000000 ) ) ;
#195 = CC_DESIGN_SECURITY_CLASSIFICATION ( #139, ( #135 ) ) ;
#196 = CARTESIAN_POINT ( 'NONE',  ( -7.482724622657953729E-31, 2.624586491725442160E-32, -2.143137509976575867E-16 ) ) ;
#197 = FACE_OUTER_BOUND ( 'NONE', #50, .T. ) ;
#198 = FACE_BOUND ( 'NONE', #93, .T. ) ;
#199 = VERTEX_POINT ( 'NONE', #42 ) ;
#200 = PRODUCT_DEFINITION ( 'UNKNOWN', '', #135, #133 ) ;
#201 = PERSON_AND_ORGANIZATION_ROLE ( 'design_supplier' ) ;
#202 = AXIS2_PLACEMENT_3D ( 'NONE', #147, #81, #21 ) ;
#203 = PERSON_AND_ORGANIZATION ( #146, #123 ) ;
ENDSEC;
END-ISO-10303-21;
