ISO-10303-21;
HEADER;
FILE_DESCRIPTION (( 'STEP AP203' ),
    '1' );
FILE_NAME ('57072.step',
    '2021-11-09T08:38:47',
    ( '' ),
    ( '' ),
    'SwSTEP 2.0',
    'SolidWorks 2019',
    '' );
FILE_SCHEMA (( 'CONFIG_CONTROL_DESIGN' ));
ENDSEC;

DATA;
#1 = DIRECTION ( 'NONE',  ( -3.491481338843133355E-15, 1.224646799147353207E-16, -1.000000000000000000 ) ) ;
#2 = FACE_OUTER_BOUND ( 'NONE', #174, .T. ) ;
#3 = CIRCLE ( 'NONE', #187, 3.500000000000001332 ) ;
#4 = DIRECTION ( 'NONE',  ( 4.275831445896958607E-31, 1.000000000000000000, 1.224646799147353207E-16 ) ) ;
#5 = CARTESIAN_POINT ( 'NONE',  ( 0.0000000000000000000, 0.0000000000000000000, 0.0000000000000000000 ) ) ;
#6 = ORIENTED_EDGE ( 'NONE', *, *, #136, .T. ) ;
#7 = VERTEX_POINT ( 'NONE', #134 ) ;
#8 = EDGE_CURVE ( 'NONE', #24, #24, #46, .T. ) ;
#9 = CC_DESIGN_APPROVAL ( #44, ( #116 ) ) ;
#10 = APPROVAL_ROLE ( '' ) ;
#11 = EDGE_CURVE ( 'NONE', #149, #149, #65, .T. ) ;
#12 = DATE_AND_TIME ( #68, #16 ) ;
#13 = APPROVAL_STATUS ( 'not_yet_approved' ) ;
#14 = EDGE_LOOP ( 'NONE', ( #182 ) ) ;
#15 = PERSON_AND_ORGANIZATION ( #73, #94 ) ;
#16 = LOCAL_TIME ( 9, 38, 47.00000000000000000, #175 ) ;
#17 = CC_DESIGN_PERSON_AND_ORGANIZATION_ASSIGNMENT ( #190, #113, ( #80 ) ) ;
#18 = EDGE_LOOP ( 'NONE', ( #59 ) ) ;
#19 = COORDINATED_UNIVERSAL_TIME_OFFSET ( 1, 0, .AHEAD. ) ;
#20 = DIRECTION ( 'NONE',  ( 3.491481338843133355E-15, -1.224646799147353207E-16, 1.000000000000000000 ) ) ;
#21 = CARTESIAN_POINT ( 'NONE',  ( 6.284666409917640040E-14, 2.624579619658244793E-32, 18.00000000000000000 ) ) ;
#22 = CC_DESIGN_DATE_AND_TIME_ASSIGNMENT ( #188, #176, ( #110 ) ) ;
#23 = CARTESIAN_POINT ( 'NONE',  ( 6.284666409917640040E-14, 2.624579619658244793E-32, 18.00000000000000000 ) ) ;
#24 = VERTEX_POINT ( 'NONE', #93 ) ;
#25 = ADVANCED_FACE ( 'NONE', ( #70, #192 ), #95, .T. ) ;
#26 = MANIFOLD_SOLID_BREP ( 'Corps-Déplacer/Copier1[2]', #163 ) ;
#27 = CC_DESIGN_PERSON_AND_ORGANIZATION_ASSIGNMENT ( #15, #200, ( #145 ) ) ;
#28 = PERSON_AND_ORGANIZATION_ROLE ( 'creator' ) ;
#29 = CC_DESIGN_PERSON_AND_ORGANIZATION_ASSIGNMENT ( #189, #48, ( #116 ) ) ;
#30 =( NAMED_UNIT ( * ) PLANE_ANGLE_UNIT ( ) SI_UNIT ( $, .RADIAN. ) );
#31 = DIRECTION ( 'NONE',  ( 0.0000000000000000000, 0.0000000000000000000, 1.000000000000000000 ) ) ;
#32 = AXIS2_PLACEMENT_3D ( 'NONE', #164, #180, #103 ) ;
#33 = PERSON_AND_ORGANIZATION ( #73, #94 ) ;
#34 = CALENDAR_DATE ( 2021, 9, 11 ) ;
#35 = APPROVAL ( #84, 'UNSPECIFIED' ) ;
#36 = FACE_OUTER_BOUND ( 'NONE', #161, .T. ) ;
#37 = LOCAL_TIME ( 9, 38, 47.00000000000000000, #53 ) ;
#38 = ORIENTED_EDGE ( 'NONE', *, *, #11, .F. ) ;
#39 = DIRECTION ( 'NONE',  ( -3.491481338843133355E-15, 1.224646799147353207E-16, -1.000000000000000000 ) ) ;
#40 = PLANE ( 'NONE',  #69 ) ;
#41 = EDGE_LOOP ( 'NONE', ( #88 ) ) ;
#42 = APPROVAL_DATE_TIME ( #75, #44 ) ;
#43 = DIRECTION ( 'NONE',  ( -3.491481338843133355E-15, 1.224646799147353207E-16, -1.000000000000000000 ) ) ;
#44 = APPROVAL ( #13, 'UNSPECIFIED' ) ;
#45 = DESIGN_CONTEXT ( 'detailed design', #49, 'design' ) ;
#46 = CIRCLE ( 'NONE', #185, 3.499999999999993783 ) ;
#47 = MECHANICAL_CONTEXT ( 'NONE', #71, 'mechanical' ) ;
#48 = PERSON_AND_ORGANIZATION_ROLE ( 'classification_officer' ) ;
#49 = APPLICATION_CONTEXT ( 'configuration controlled 3d designs of mechanical parts and assemblies' ) ;
#50 = COORDINATED_UNIVERSAL_TIME_OFFSET ( 1, 0, .AHEAD. ) ;
#51 =( LENGTH_UNIT ( ) NAMED_UNIT ( * ) SI_UNIT ( .MILLI., .METRE. ) );
#52 = ADVANCED_FACE ( 'NONE', ( #54, #55 ), #198, .T. ) ;
#53 = COORDINATED_UNIVERSAL_TIME_OFFSET ( 1, 0, .AHEAD. ) ;
#54 = FACE_OUTER_BOUND ( 'NONE', #41, .T. ) ;
#55 = FACE_OUTER_BOUND ( 'NONE', #119, .T. ) ;
#56 = ADVANCED_FACE ( 'NONE', ( #146 ), #40, .T. ) ;
#57 = LOCAL_TIME ( 9, 38, 47.00000000000000000, #67 ) ;
#58 = DIRECTION ( 'NONE',  ( 4.275831445896958607E-31, 1.000000000000000000, 1.224646799147353454E-16 ) ) ;
#59 = ORIENTED_EDGE ( 'NONE', *, *, #136, .F. ) ;
#60 = PLANE ( 'NONE',  #195 ) ;
#61 = AXIS2_PLACEMENT_3D ( 'NONE', #101, #76, #102 ) ;
#62 = CARTESIAN_POINT ( 'NONE',  ( 6.284666409917640040E-14, 3.499999999999993783, 18.00000000000000000 ) ) ;
#63 = ADVANCED_FACE ( 'NONE', ( #143 ), #132, .F. ) ;
#64 = LOCAL_TIME ( 9, 38, 47.00000000000000000, #19 ) ;
#65 = CIRCLE ( 'NONE', #170, 3.499999999999996003 ) ;
#66 = CARTESIAN_POINT ( 'NONE',  ( 0.0000000000000000000, 0.0000000000000000000, 0.0000000000000000000 ) ) ;
#67 = COORDINATED_UNIVERSAL_TIME_OFFSET ( 1, 0, .AHEAD. ) ;
#68 = CALENDAR_DATE ( 2021, 9, 11 ) ;
#69 = AXIS2_PLACEMENT_3D ( 'NONE', #23, #20, #89 ) ;
#70 = FACE_OUTER_BOUND ( 'NONE', #18, .T. ) ;
#71 = APPLICATION_CONTEXT ( 'configuration controlled 3d designs of mechanical parts and assemblies' ) ;
#72 = DIRECTION ( 'NONE',  ( -3.491481338843133355E-15, 1.224646799147353207E-16, -1.000000000000000000 ) ) ;
#73 = PERSON ( 'UNSPECIFIED', 'UNSPECIFIED', 'UNSPECIFIED', ('UNSPECIFIED'), ('UNSPECIFIED'), ('UNSPECIFIED') ) ;
#74 = FACE_OUTER_BOUND ( 'NONE', #142, .T. ) ;
#75 = DATE_AND_TIME ( #162, #64 ) ;
#76 = DIRECTION ( 'NONE',  ( -3.491481338843133355E-15, 1.224646799147353207E-16, -1.000000000000000000 ) ) ;
#77 = ADVANCED_FACE ( 'NONE', ( #36, #2 ), #179, .T. ) ;
#78 = DIRECTION ( 'NONE',  ( -3.491481338843133355E-15, 1.224646799147353207E-16, -1.000000000000000000 ) ) ;
#79 = AXIS2_PLACEMENT_3D ( 'NONE', #181, #72, #194 ) ;
#80 = PRODUCT ( '57072', '57072', '', ( #47 ) ) ;
#81 = PERSON_AND_ORGANIZATION ( #73, #94 ) ;
#82 = APPROVAL_PERSON_ORGANIZATION ( #203, #44, #131 ) ;
#83 = APPROVAL_DATE_TIME ( #12, #35 ) ;
#84 = APPROVAL_STATUS ( 'not_yet_approved' ) ;
#85 = SECURITY_CLASSIFICATION_LEVEL ( 'unclassified' ) ;
#86 = APPROVAL_PERSON_ORGANIZATION ( #172, #35, #10 ) ;
#87 = CIRCLE ( 'NONE', #32, 3.499999999999996003 ) ;
#88 = ORIENTED_EDGE ( 'NONE', *, *, #148, .F. ) ;
#89 = DIRECTION ( 'NONE',  ( -4.275831445896958607E-31, -1.000000000000000000, -1.224646799147353207E-16 ) ) ;
#90 = DIRECTION ( 'NONE',  ( 3.491481338843133355E-15, -1.224646799147353207E-16, 1.000000000000000000 ) ) ;
#91 = EDGE_LOOP ( 'NONE', ( #109 ) ) ;
#92 = DIRECTION ( 'NONE',  ( 3.491481338843133355E-15, -1.224646799147353207E-16, 1.000000000000000000 ) ) ;
#93 = CARTESIAN_POINT ( 'NONE',  ( 2.137876538271900256E-31, 3.499999999999993783, 6.123121766362532060E-17 ) ) ;
#94 = ORGANIZATION ( 'UNSPECIFIED', 'UNSPECIFIED', '' ) ;
#95 = CONICAL_SURFACE ( 'NONE', #79, 3.000000000000001332, 0.7853981633974479459 ) ;
#96 = PERSON_AND_ORGANIZATION ( #73, #94 ) ;
#97 = ADVANCED_FACE ( 'NONE', ( #114 ), #60, .F. ) ;
#98 = DATE_AND_TIME ( #111, #152 ) ;
#99 = VERTEX_POINT ( 'NONE', #139 ) ;
#100 = APPROVAL_DATE_TIME ( #138, #140 ) ;
#101 = CARTESIAN_POINT ( 'NONE',  ( 0.0000000000000000000, 0.0000000000000000000, 0.0000000000000000000 ) ) ;
#102 = DIRECTION ( 'NONE',  ( 4.275831445896958607E-31, 1.000000000000000000, 1.224646799147353454E-16 ) ) ;
#103 = DIRECTION ( 'NONE',  ( 0.0000000000000000000, 1.000000000000000000, 0.0000000000000000000 ) ) ;
#104 = CARTESIAN_POINT ( 'NONE',  ( 2.094888803305880013E-13, 2.249639673992776559E-32, 60.00000000000000000 ) ) ;
#105 = APPROVAL_PERSON_ORGANIZATION ( #33, #140, #124 ) ;
#106 = EDGE_LOOP ( 'NONE', ( #38 ) ) ;
#107 = DIRECTION ( 'NONE',  ( -4.275831445896958607E-31, -1.000000000000000000, -1.224646799147353207E-16 ) ) ;
#108 = APPLICATION_PROTOCOL_DEFINITION ( 'international standard', 'config_control_design', 1994, #49 ) ;
#109 = ORIENTED_EDGE ( 'NONE', *, *, #173, .F. ) ;
#110 = PRODUCT_DEFINITION ( 'UNKNOWN', '', #145, #45 ) ;
#111 = CALENDAR_DATE ( 2021, 9, 11 ) ;
#112 = CIRCLE ( 'NONE', #141, 3.000000000000001332 ) ;
#113 = PERSON_AND_ORGANIZATION_ROLE ( 'design_owner' ) ;
#114 = FACE_OUTER_BOUND ( 'NONE', #14, .T. ) ;
#115 = DIRECTION ( 'NONE',  ( 4.275831445896958607E-31, 1.000000000000000000, 1.224646799147353207E-16 ) ) ;
#116 = SECURITY_CLASSIFICATION ( '', '', #85 ) ;
#117 = CARTESIAN_POINT ( 'NONE',  ( 2.077431396611664157E-13, -7.286648454926750781E-15, 59.50000000000000000 ) ) ;
#118 = SHAPE_DEFINITION_REPRESENTATION ( #193, #150 ) ;
#119 = EDGE_LOOP ( 'NONE', ( #6 ) ) ;
#120 = DIRECTION ( 'NONE',  ( -4.275831445896958607E-31, -1.000000000000000000, -1.224646799147353207E-16 ) ) ;
#121 = CARTESIAN_POINT ( 'NONE',  ( 6.284666409917640040E-14, 3.499999999999993783, 18.00000000000000000 ) ) ;
#122 = AXIS2_PLACEMENT_3D ( 'NONE', #5, #39, #58 ) ;
#123 = CC_DESIGN_APPROVAL ( #35, ( #110 ) ) ;
#124 = APPROVAL_ROLE ( '' ) ;
#125 =( NAMED_UNIT ( * ) SI_UNIT ( $, .STERADIAN. ) SOLID_ANGLE_UNIT ( ) );
#126 = CC_DESIGN_SECURITY_CLASSIFICATION ( #116, ( #145 ) ) ;
#127 = APPROVAL_STATUS ( 'not_yet_approved' ) ;
#128 = PRODUCT_RELATED_PRODUCT_CATEGORY ( 'detail', '', ( #80 ) ) ;
#129 = EDGE_LOOP ( 'NONE', ( #171 ) ) ;
#130 = CARTESIAN_POINT ( 'NONE',  ( -6.413766761183714515E-31, 2.249646546059978305E-32, -1.836975810189737750E-16 ) ) ;
#131 = APPROVAL_ROLE ( '' ) ;
#132 = PLANE ( 'NONE',  #135 ) ;
#133 = CARTESIAN_POINT ( 'NONE',  ( -1.282753352236742903E-30, 4.499293092119956610E-32, -3.673951620379475500E-16 ) ) ;
#134 = CARTESIAN_POINT ( 'NONE',  ( 2.077431396611664157E-13, 3.499999999999993783, 59.50000000000000000 ) ) ;
#135 = AXIS2_PLACEMENT_3D ( 'NONE', #104, #177, #115 ) ;
#136 = EDGE_CURVE ( 'NONE', #7, #7, #3, .T. ) ;
#137 = CC_DESIGN_DATE_AND_TIME_ASSIGNMENT ( #98, #154, ( #116 ) ) ;
#138 = DATE_AND_TIME ( #34, #37 ) ;
#139 = CARTESIAN_POINT ( 'NONE',  ( 2.094888803305880013E-13, 2.999999999999993783, 60.00000000000000000 ) ) ;
#140 = APPROVAL ( #127, 'UNSPECIFIED' ) ;
#141 = AXIS2_PLACEMENT_3D ( 'NONE', #166, #43, #184 ) ;
#142 = EDGE_LOOP ( 'NONE', ( #158 ) ) ;
#143 = FACE_OUTER_BOUND ( 'NONE', #91, .T. ) ;
#144 = CARTESIAN_POINT ( 'NONE',  ( 6.284666409917640040E-14, -2.204364238465235428E-15, 18.00000000000000000 ) ) ;
#145 = PRODUCT_DEFINITION_FORMATION_WITH_SPECIFIED_SOURCE ( 'ANY', '', #80, .NOT_KNOWN. ) ;
#146 = FACE_OUTER_BOUND ( 'NONE', #106, .T. ) ;
#147 = ORIENTED_EDGE ( 'NONE', *, *, #8, .F. ) ;
#148 = EDGE_CURVE ( 'NONE', #199, #199, #87, .T. ) ;
#149 = VERTEX_POINT ( 'NONE', #62 ) ;
#150 = ADVANCED_BREP_SHAPE_REPRESENTATION ( '57072', ( #159, #26, #169 ), #167 ) ;
#151 = CC_DESIGN_PERSON_AND_ORGANIZATION_ASSIGNMENT ( #96, #156, ( #145 ) ) ;
#152 = LOCAL_TIME ( 9, 38, 47.00000000000000000, #50 ) ;
#153 = ORIENTED_EDGE ( 'NONE', *, *, #11, .T. ) ;
#154 = DATE_TIME_ROLE ( 'classification_date' ) ;
#155 = DIRECTION ( 'NONE',  ( 1.000000000000000000, 0.0000000000000000000, 0.0000000000000000000 ) ) ;
#156 = PERSON_AND_ORGANIZATION_ROLE ( 'creator' ) ;
#157 = DIRECTION ( 'NONE',  ( -3.491481338843133355E-15, 1.224646799147353207E-16, -1.000000000000000000 ) ) ;
#158 = ORIENTED_EDGE ( 'NONE', *, *, #148, .T. ) ;
#159 = MANIFOLD_SOLID_BREP ( 'Corps-Déplacer/Copier1[1]', #183 ) ;
#160 = PLANE ( 'NONE',  #191 ) ;
#161 = EDGE_LOOP ( 'NONE', ( #147 ) ) ;
#162 = CALENDAR_DATE ( 2021, 9, 11 ) ;
#163 = CLOSED_SHELL ( 'NONE', ( #97, #77, #56 ) ) ;
#164 = CARTESIAN_POINT ( 'NONE',  ( 6.284666409917640040E-14, -2.204364238465235428E-15, 18.00000000000000000 ) ) ;
#165 = ADVANCED_FACE ( 'NONE', ( #74 ), #160, .F. ) ;
#166 = CARTESIAN_POINT ( 'NONE',  ( 2.094888803305880013E-13, -7.347880794884118356E-15, 60.00000000000000000 ) ) ;
#167 =( GEOMETRIC_REPRESENTATION_CONTEXT ( 3 ) GLOBAL_UNCERTAINTY_ASSIGNED_CONTEXT ( ( #168 ) ) GLOBAL_UNIT_ASSIGNED_CONTEXT ( ( #51, #30, #125 ) ) REPRESENTATION_CONTEXT ( 'NONE', 'WORKASPACE' ) );
#168 = UNCERTAINTY_MEASURE_WITH_UNIT (LENGTH_MEASURE( 1.000000000000000082E-05 ), #51, 'distance_accuracy_value', 'NONE');
#169 = AXIS2_PLACEMENT_3D ( 'NONE', #66, #31, #155 ) ;
#170 = AXIS2_PLACEMENT_3D ( 'NONE', #144, #1, #197 ) ;
#171 = ORIENTED_EDGE ( 'NONE', *, *, #173, .T. ) ;
#172 = PERSON_AND_ORGANIZATION ( #73, #94 ) ;
#173 = EDGE_CURVE ( 'NONE', #99, #99, #112, .T. ) ;
#174 = EDGE_LOOP ( 'NONE', ( #153 ) ) ;
#175 = COORDINATED_UNIVERSAL_TIME_OFFSET ( 1, 0, .AHEAD. ) ;
#176 = DATE_TIME_ROLE ( 'creation_date' ) ;
#177 = DIRECTION ( 'NONE',  ( -3.491481338843133355E-15, 1.224646799147353207E-16, -1.000000000000000000 ) ) ;
#178 = CC_DESIGN_PERSON_AND_ORGANIZATION_ASSIGNMENT ( #81, #28, ( #110 ) ) ;
#179 = CYLINDRICAL_SURFACE ( 'NONE', #61, 3.499999999999995115 ) ;
#180 = DIRECTION ( 'NONE',  ( -3.491481338843133355E-15, 1.224646799147353207E-16, -1.000000000000000000 ) ) ;
#181 = CARTESIAN_POINT ( 'NONE',  ( 2.094888803305880013E-13, -7.347880794884118356E-15, 60.00000000000000000 ) ) ;
#182 = ORIENTED_EDGE ( 'NONE', *, *, #8, .T. ) ;
#183 = CLOSED_SHELL ( 'NONE', ( #165, #52, #25, #63 ) ) ;
#184 = DIRECTION ( 'NONE',  ( 0.0000000000000000000, 1.000000000000000000, 0.0000000000000000000 ) ) ;
#185 = AXIS2_PLACEMENT_3D ( 'NONE', #133, #78, #4 ) ;
#186 = APPLICATION_PROTOCOL_DEFINITION ( 'international standard', 'config_control_design', 1994, #71 ) ;
#187 = AXIS2_PLACEMENT_3D ( 'NONE', #117, #157, #196 ) ;
#188 = DATE_AND_TIME ( #202, #57 ) ;
#189 = PERSON_AND_ORGANIZATION ( #73, #94 ) ;
#190 = PERSON_AND_ORGANIZATION ( #73, #94 ) ;
#191 = AXIS2_PLACEMENT_3D ( 'NONE', #21, #90, #107 ) ;
#192 = FACE_BOUND ( 'NONE', #129, .T. ) ;
#193 = PRODUCT_DEFINITION_SHAPE ( 'NONE', 'NONE',  #110 ) ;
#194 = DIRECTION ( 'NONE',  ( 0.0000000000000000000, 1.000000000000000000, 0.0000000000000000000 ) ) ;
#195 = AXIS2_PLACEMENT_3D ( 'NONE', #130, #92, #120 ) ;
#196 = DIRECTION ( 'NONE',  ( 0.0000000000000000000, 1.000000000000000000, 0.0000000000000000000 ) ) ;
#197 = DIRECTION ( 'NONE',  ( 0.0000000000000000000, 1.000000000000000000, 0.0000000000000000000 ) ) ;
#198 = CYLINDRICAL_SURFACE ( 'NONE', #122, 3.499999999999998668 ) ;
#199 = VERTEX_POINT ( 'NONE', #121 ) ;
#200 = PERSON_AND_ORGANIZATION_ROLE ( 'design_supplier' ) ;
#201 = CC_DESIGN_APPROVAL ( #140, ( #145 ) ) ;
#202 = CALENDAR_DATE ( 2021, 9, 11 ) ;
#203 = PERSON_AND_ORGANIZATION ( #73, #94 ) ;
ENDSEC;
END-ISO-10303-21;
