ISO-10303-21;
HEADER;
FILE_DESCRIPTION (( 'STEP AP203' ),
    '1' );
FILE_NAME ('57071.step',
    '2021-11-09T08:38:47',
    ( '' ),
    ( '' ),
    'SwSTEP 2.0',
    'SolidWorks 2019',
    '' );
FILE_SCHEMA (( 'CONFIG_CONTROL_DESIGN' ));
ENDSEC;

DATA;
#1 = DATE_TIME_ROLE ( 'classification_date' ) ;
#2 = CALENDAR_DATE ( 2021, 9, 11 ) ;
#3 = EDGE_LOOP ( 'NONE', ( #179 ) ) ;
#4 = FACE_OUTER_BOUND ( 'NONE', #58, .T. ) ;
#5 = ADVANCED_FACE ( 'NONE', ( #76, #29 ), #7, .T. ) ;
#6 = CYLINDRICAL_SURFACE ( 'NONE', #143, 2.999999999999998224 ) ;
#7 = CONICAL_SURFACE ( 'NONE', #51, 2.500000000000000000, 0.7853981633974479459 ) ;
#8 = APPLICATION_PROTOCOL_DEFINITION ( 'international standard', 'config_control_design', 1994, #39 ) ;
#9 = CARTESIAN_POINT ( 'NONE',  ( 0.0000000000000000000, 0.0000000000000000000, 0.0000000000000000000 ) ) ;
#10 =( NAMED_UNIT ( * ) SI_UNIT ( $, .STERADIAN. ) SOLID_ANGLE_UNIT ( ) );
#11 = APPROVAL_DATE_TIME ( #188, #125 ) ;
#12 = ADVANCED_BREP_SHAPE_REPRESENTATION ( '57071', ( #161, #21, #182 ), #67 ) ;
#13 = PRODUCT_DEFINITION_FORMATION_WITH_SPECIFIED_SOURCE ( 'ANY', '', #194, .NOT_KNOWN. ) ;
#14 = DIRECTION ( 'NONE',  ( 0.0000000000000000000, 1.000000000000000000, 0.0000000000000000000 ) ) ;
#15 = DIRECTION ( 'NONE',  ( -4.275831445896958607E-31, -1.000000000000000000, -1.224646799147353207E-16 ) ) ;
#16 = FACE_OUTER_BOUND ( 'NONE', #203, .T. ) ;
#17 = DIRECTION ( 'NONE',  ( -3.491481338843133355E-15, 1.224646799147353207E-16, -1.000000000000000000 ) ) ;
#18 = PRODUCT_DEFINITION_SHAPE ( 'NONE', 'NONE',  #78 ) ;
#19 = DIRECTION ( 'NONE',  ( 0.0000000000000000000, 0.0000000000000000000, 1.000000000000000000 ) ) ;
#20 = VERTEX_POINT ( 'NONE', #187 ) ;
#21 = MANIFOLD_SOLID_BREP ( 'Corps-Déplacer/Copier1[2]', #23 ) ;
#22 = CARTESIAN_POINT ( 'NONE',  ( 5.586370142149013368E-14, -1.959434878635765131E-15, 16.00000000000000000 ) ) ;
#23 = CLOSED_SHELL ( 'NONE', ( #159, #111, #134 ) ) ;
#24 = DIRECTION ( 'NONE',  ( -3.491481338843133355E-15, 1.224646799147353207E-16, -1.000000000000000000 ) ) ;
#25 = COORDINATED_UNIVERSAL_TIME_OFFSET ( 1, 0, .AHEAD. ) ;
#26 = DATE_AND_TIME ( #93, #196 ) ;
#27 = APPROVAL ( #122, 'UNSPECIFIED' ) ;
#28 = PERSON_AND_ORGANIZATION ( #152, #100 ) ;
#29 = FACE_BOUND ( 'NONE', #129, .T. ) ;
#30 = CALENDAR_DATE ( 2021, 9, 11 ) ;
#31 = CARTESIAN_POINT ( 'NONE',  ( 1.745740669421566678E-13, -6.123233995736766085E-15, 50.00000000000000000 ) ) ;
#32 = CC_DESIGN_APPROVAL ( #125, ( #78 ) ) ;
#33 = EDGE_CURVE ( 'NONE', #20, #20, #172, .T. ) ;
#34 = UNCERTAINTY_MEASURE_WITH_UNIT (LENGTH_MEASURE( 1.000000000000000082E-05 ), #147, 'distance_accuracy_value', 'NONE');
#35 = CIRCLE ( 'NONE', #178, 2.999999999999996003 ) ;
#36 = APPROVAL_STATUS ( 'not_yet_approved' ) ;
#37 = CC_DESIGN_PERSON_AND_ORGANIZATION_ASSIGNMENT ( #104, #153, ( #109 ) ) ;
#38 = DIRECTION ( 'NONE',  ( -3.491481338843133355E-15, 1.224646799147353207E-16, -1.000000000000000000 ) ) ;
#39 = APPLICATION_CONTEXT ( 'configuration controlled 3d designs of mechanical parts and assemblies' ) ;
#40 = CARTESIAN_POINT ( 'NONE',  ( 1.745740669421566678E-13, 2.499999999999993783, 50.00000000000000000 ) ) ;
#41 = PRODUCT_RELATED_PRODUCT_CATEGORY ( 'detail', '', ( #194 ) ) ;
#42 = EDGE_CURVE ( 'NONE', #130, #130, #45, .T. ) ;
#43 = DIRECTION ( 'NONE',  ( 4.275831445896958607E-31, 1.000000000000000000, 1.224646799147353454E-16 ) ) ;
#44 = DIRECTION ( 'NONE',  ( 3.491481338843133355E-15, -1.224646799147353207E-16, 1.000000000000000000 ) ) ;
#45 = CIRCLE ( 'NONE', #80, 2.500000000000000000 ) ;
#46 = CC_DESIGN_SECURITY_CLASSIFICATION ( #109, ( #13 ) ) ;
#47 = ORIENTED_EDGE ( 'NONE', *, *, #33, .T. ) ;
#48 = ORIENTED_EDGE ( 'NONE', *, *, #33, .F. ) ;
#49 = LOCAL_TIME ( 9, 38, 47.00000000000000000, #25 ) ;
#50 = FACE_OUTER_BOUND ( 'NONE', #181, .T. ) ;
#51 = AXIS2_PLACEMENT_3D ( 'NONE', #31, #17, #124 ) ;
#52 = CARTESIAN_POINT ( 'NONE',  ( 5.586370142149013368E-14, -1.959434878635765131E-15, 16.00000000000000000 ) ) ;
#53 = CARTESIAN_POINT ( 'NONE',  ( -5.344808899709476178E-31, 1.874706600394513903E-32, -1.530814110402899633E-16 ) ) ;
#54 = EDGE_LOOP ( 'NONE', ( #135 ) ) ;
#55 = DIRECTION ( 'NONE',  ( 4.275831445896958607E-31, 1.000000000000000000, 1.224646799147353454E-16 ) ) ;
#56 = COORDINATED_UNIVERSAL_TIME_OFFSET ( 1, 0, .AHEAD. ) ;
#57 = DATE_TIME_ROLE ( 'creation_date' ) ;
#58 = EDGE_LOOP ( 'NONE', ( #121 ) ) ;
#59 = PERSON_AND_ORGANIZATION_ROLE ( 'creator' ) ;
#60 = APPROVAL_DATE_TIME ( #117, #27 ) ;
#61 = ORIENTED_EDGE ( 'NONE', *, *, #148, .T. ) ;
#62 = AXIS2_PLACEMENT_3D ( 'NONE', #163, #82, #201 ) ;
#63 = CC_DESIGN_DATE_AND_TIME_ASSIGNMENT ( #26, #1, ( #109 ) ) ;
#64 = LOCAL_TIME ( 9, 38, 47.00000000000000000, #151 ) ;
#65 = ORIENTED_EDGE ( 'NONE', *, *, #42, .T. ) ;
#66 = MECHANICAL_CONTEXT ( 'NONE', #39, 'mechanical' ) ;
#67 =( GEOMETRIC_REPRESENTATION_CONTEXT ( 3 ) GLOBAL_UNCERTAINTY_ASSIGNED_CONTEXT ( ( #34 ) ) GLOBAL_UNIT_ASSIGNED_CONTEXT ( ( #147, #87, #10 ) ) REPRESENTATION_CONTEXT ( 'NONE', 'WORKASPACE' ) );
#68 = ADVANCED_FACE ( 'NONE', ( #140 ), #158, .F. ) ;
#69 = APPLICATION_PROTOCOL_DEFINITION ( 'international standard', 'config_control_design', 1994, #83 ) ;
#70 = CARTESIAN_POINT ( 'NONE',  ( 0.0000000000000000000, 0.0000000000000000000, 0.0000000000000000000 ) ) ;
#71 = APPROVAL_DATE_TIME ( #118, #198 ) ;
#72 = ADVANCED_FACE ( 'NONE', ( #4 ), #123, .F. ) ;
#73 = APPROVAL_ROLE ( '' ) ;
#74 = AXIS2_PLACEMENT_3D ( 'NONE', #53, #98, #146 ) ;
#75 = DATE_AND_TIME ( #89, #49 ) ;
#76 = FACE_OUTER_BOUND ( 'NONE', #102, .T. ) ;
#77 = FACE_OUTER_BOUND ( 'NONE', #168, .T. ) ;
#78 = PRODUCT_DEFINITION ( 'UNKNOWN', '', #13, #162 ) ;
#79 = CARTESIAN_POINT ( 'NONE',  ( 5.586370142149013368E-14, 2.249639673992780391E-32, 16.00000000000000000 ) ) ;
#80 = AXIS2_PLACEMENT_3D ( 'NONE', #112, #136, #14 ) ;
#81 = AXIS2_PLACEMENT_3D ( 'NONE', #22, #24, #142 ) ;
#82 = DIRECTION ( 'NONE',  ( -3.491481338843133355E-15, 1.224646799147353207E-16, -1.000000000000000000 ) ) ;
#83 = APPLICATION_CONTEXT ( 'configuration controlled 3d designs of mechanical parts and assemblies' ) ;
#84 = PERSON_AND_ORGANIZATION ( #152, #100 ) ;
#85 = CLOSED_SHELL ( 'NONE', ( #68, #139, #5, #72 ) ) ;
#86 = VERTEX_POINT ( 'NONE', #164 ) ;
#87 =( NAMED_UNIT ( * ) PLANE_ANGLE_UNIT ( ) SI_UNIT ( $, .RADIAN. ) );
#88 = PERSON_AND_ORGANIZATION ( #152, #100 ) ;
#89 = CALENDAR_DATE ( 2021, 9, 11 ) ;
#90 = CARTESIAN_POINT ( 'NONE',  ( 0.0000000000000000000, 0.0000000000000000000, 0.0000000000000000000 ) ) ;
#91 = SHAPE_DEFINITION_REPRESENTATION ( #18, #12 ) ;
#92 = DIRECTION ( 'NONE',  ( -3.491481338843133355E-15, 1.224646799147353207E-16, -1.000000000000000000 ) ) ;
#93 = CALENDAR_DATE ( 2021, 9, 11 ) ;
#94 = FACE_OUTER_BOUND ( 'NONE', #54, .T. ) ;
#95 = CARTESIAN_POINT ( 'NONE',  ( -1.068961779941895236E-30, 3.749413200789027806E-32, -3.061628220805799266E-16 ) ) ;
#96 = AXIS2_PLACEMENT_3D ( 'NONE', #95, #191, #43 ) ;
#97 = COORDINATED_UNIVERSAL_TIME_OFFSET ( 1, 0, .AHEAD. ) ;
#98 = DIRECTION ( 'NONE',  ( 3.491481338843133355E-15, -1.224646799147353207E-16, 1.000000000000000000 ) ) ;
#99 = CC_DESIGN_PERSON_AND_ORGANIZATION_ASSIGNMENT ( #174, #133, ( #13 ) ) ;
#100 = ORGANIZATION ( 'UNSPECIFIED', 'UNSPECIFIED', '' ) ;
#101 = DIRECTION ( 'NONE',  ( 0.0000000000000000000, 1.000000000000000000, 0.0000000000000000000 ) ) ;
#102 = EDGE_LOOP ( 'NONE', ( #160 ) ) ;
#103 = VERTEX_POINT ( 'NONE', #131 ) ;
#104 = PERSON_AND_ORGANIZATION ( #152, #100 ) ;
#105 = CIRCLE ( 'NONE', #81, 2.999999999999996003 ) ;
#106 = PERSON_AND_ORGANIZATION ( #152, #100 ) ;
#107 = APPROVAL_ROLE ( '' ) ;
#108 = DIRECTION ( 'NONE',  ( 4.275831445896959482E-31, 1.000000000000000000, 1.224646799147353207E-16 ) ) ;
#109 = SECURITY_CLASSIFICATION ( '', '', #120 ) ;
#110 = EDGE_LOOP ( 'NONE', ( #61 ) ) ;
#111 = ADVANCED_FACE ( 'NONE', ( #16, #50 ), #156, .T. ) ;
#112 = CARTESIAN_POINT ( 'NONE',  ( 1.745740669421566678E-13, -6.123233995736766085E-15, 50.00000000000000000 ) ) ;
#113 = VERTEX_POINT ( 'NONE', #169 ) ;
#114 = EDGE_LOOP ( 'NONE', ( #47 ) ) ;
#115 = AXIS2_PLACEMENT_3D ( 'NONE', #197, #92, #154 ) ;
#116 = FACE_OUTER_BOUND ( 'NONE', #114, .T. ) ;
#117 = DATE_AND_TIME ( #30, #166 ) ;
#118 = DATE_AND_TIME ( #2, #64 ) ;
#119 = LOCAL_TIME ( 9, 38, 47.00000000000000000, #97 ) ;
#120 = SECURITY_CLASSIFICATION_LEVEL ( 'unclassified' ) ;
#121 = ORIENTED_EDGE ( 'NONE', *, *, #42, .F. ) ;
#122 = APPROVAL_STATUS ( 'not_yet_approved' ) ;
#123 = PLANE ( 'NONE',  #115 ) ;
#124 = DIRECTION ( 'NONE',  ( 0.0000000000000000000, 1.000000000000000000, 0.0000000000000000000 ) ) ;
#125 = APPROVAL ( #36, 'UNSPECIFIED' ) ;
#126 = DIRECTION ( 'NONE',  ( -4.275831445896958607E-31, -1.000000000000000000, -1.224646799147353207E-16 ) ) ;
#127 = AXIS2_PLACEMENT_3D ( 'NONE', #90, #192, #108 ) ;
#128 = DIRECTION ( 'NONE',  ( 1.000000000000000000, 0.0000000000000000000, 0.0000000000000000000 ) ) ;
#129 = EDGE_LOOP ( 'NONE', ( #65 ) ) ;
#130 = VERTEX_POINT ( 'NONE', #40 ) ;
#131 = CARTESIAN_POINT ( 'NONE',  ( 5.586370142149013368E-14, 2.999999999999993783, 16.00000000000000000 ) ) ;
#132 = CC_DESIGN_DATE_AND_TIME_ASSIGNMENT ( #75, #57, ( #78 ) ) ;
#133 = PERSON_AND_ORGANIZATION_ROLE ( 'design_supplier' ) ;
#134 = ADVANCED_FACE ( 'NONE', ( #94 ), #157, .T. ) ;
#135 = ORIENTED_EDGE ( 'NONE', *, *, #202, .F. ) ;
#136 = DIRECTION ( 'NONE',  ( -3.491481338843133355E-15, 1.224646799147353207E-16, -1.000000000000000000 ) ) ;
#137 = FACE_OUTER_BOUND ( 'NONE', #3, .T. ) ;
#138 = DIRECTION ( 'NONE',  ( 3.491481338843133355E-15, -1.224646799147353207E-16, 1.000000000000000000 ) ) ;
#139 = ADVANCED_FACE ( 'NONE', ( #77, #137 ), #6, .T. ) ;
#140 = FACE_OUTER_BOUND ( 'NONE', #110, .T. ) ;
#141 = CC_DESIGN_APPROVAL ( #198, ( #13 ) ) ;
#142 = DIRECTION ( 'NONE',  ( 0.0000000000000000000, 1.000000000000000000, 0.0000000000000000000 ) ) ;
#143 = AXIS2_PLACEMENT_3D ( 'NONE', #9, #185, #55 ) ;
#144 = APPROVAL_PERSON_ORGANIZATION ( #106, #27, #107 ) ;
#145 = CALENDAR_DATE ( 2021, 9, 11 ) ;
#146 = DIRECTION ( 'NONE',  ( -4.275831445896958607E-31, -1.000000000000000000, -1.224646799147353207E-16 ) ) ;
#147 =( LENGTH_UNIT ( ) NAMED_UNIT ( * ) SI_UNIT ( .MILLI., .METRE. ) );
#148 = EDGE_CURVE ( 'NONE', #103, #103, #35, .T. ) ;
#149 = CIRCLE ( 'NONE', #62, 3.000000000000000000 ) ;
#150 = APPROVAL_STATUS ( 'not_yet_approved' ) ;
#151 = COORDINATED_UNIVERSAL_TIME_OFFSET ( 1, 0, .AHEAD. ) ;
#152 = PERSON ( 'UNSPECIFIED', 'UNSPECIFIED', 'UNSPECIFIED', ('UNSPECIFIED'), ('UNSPECIFIED'), ('UNSPECIFIED') ) ;
#153 = PERSON_AND_ORGANIZATION_ROLE ( 'classification_officer' ) ;
#154 = DIRECTION ( 'NONE',  ( 4.275831445896958607E-31, 1.000000000000000000, 1.224646799147353207E-16 ) ) ;
#155 = APPROVAL_PERSON_ORGANIZATION ( #88, #198, #73 ) ;
#156 = CYLINDRICAL_SURFACE ( 'NONE', #127, 2.999999999999994671 ) ;
#157 = PLANE ( 'NONE',  #195 ) ;
#158 = PLANE ( 'NONE',  #200 ) ;
#159 = ADVANCED_FACE ( 'NONE', ( #116 ), #167, .F. ) ;
#160 = ORIENTED_EDGE ( 'NONE', *, *, #186, .F. ) ;
#161 = MANIFOLD_SOLID_BREP ( 'Corps-Déplacer/Copier1[1]', #85 ) ;
#162 = DESIGN_CONTEXT ( 'detailed design', #83, 'design' ) ;
#163 = CARTESIAN_POINT ( 'NONE',  ( 1.728283262727351074E-13, -6.062001655779398511E-15, 49.50000000000000000 ) ) ;
#164 = CARTESIAN_POINT ( 'NONE',  ( 1.728283262727351074E-13, 2.999999999999993783, 49.50000000000000000 ) ) ;
#165 = APPROVAL_ROLE ( '' ) ;
#166 = LOCAL_TIME ( 9, 38, 47.00000000000000000, #56 ) ;
#167 = PLANE ( 'NONE',  #74 ) ;
#168 = EDGE_LOOP ( 'NONE', ( #180 ) ) ;
#169 = CARTESIAN_POINT ( 'NONE',  ( 5.586370142149013368E-14, 2.999999999999993783, 16.00000000000000000 ) ) ;
#170 = CC_DESIGN_PERSON_AND_ORGANIZATION_ASSIGNMENT ( #171, #177, ( #78 ) ) ;
#171 = PERSON_AND_ORGANIZATION ( #152, #100 ) ;
#172 = CIRCLE ( 'NONE', #96, 2.999999999999993783 ) ;
#173 = CC_DESIGN_APPROVAL ( #27, ( #109 ) ) ;
#174 = PERSON_AND_ORGANIZATION ( #152, #100 ) ;
#175 = CC_DESIGN_PERSON_AND_ORGANIZATION_ASSIGNMENT ( #84, #199, ( #194 ) ) ;
#176 = ORIENTED_EDGE ( 'NONE', *, *, #202, .T. ) ;
#177 = PERSON_AND_ORGANIZATION_ROLE ( 'creator' ) ;
#178 = AXIS2_PLACEMENT_3D ( 'NONE', #52, #38, #101 ) ;
#179 = ORIENTED_EDGE ( 'NONE', *, *, #186, .T. ) ;
#180 = ORIENTED_EDGE ( 'NONE', *, *, #148, .F. ) ;
#181 = EDGE_LOOP ( 'NONE', ( #176 ) ) ;
#182 = AXIS2_PLACEMENT_3D ( 'NONE', #70, #19, #128 ) ;
#183 = PERSON_AND_ORGANIZATION ( #152, #100 ) ;
#184 = CC_DESIGN_PERSON_AND_ORGANIZATION_ASSIGNMENT ( #28, #59, ( #13 ) ) ;
#185 = DIRECTION ( 'NONE',  ( -3.491481338843133355E-15, 1.224646799147353207E-16, -1.000000000000000000 ) ) ;
#186 = EDGE_CURVE ( 'NONE', #86, #86, #149, .T. ) ;
#187 = CARTESIAN_POINT ( 'NONE',  ( 2.137876538271896752E-31, 2.999999999999993783, 6.123121766362532060E-17 ) ) ;
#188 = DATE_AND_TIME ( #145, #119 ) ;
#189 = APPROVAL_PERSON_ORGANIZATION ( #183, #125, #165 ) ;
#190 = COORDINATED_UNIVERSAL_TIME_OFFSET ( 1, 0, .AHEAD. ) ;
#191 = DIRECTION ( 'NONE',  ( -3.491481338843133355E-15, 1.224646799147353207E-16, -1.000000000000000000 ) ) ;
#192 = DIRECTION ( 'NONE',  ( -3.491481338843133355E-15, 1.224646799147353207E-16, -1.000000000000000000 ) ) ;
#193 = CARTESIAN_POINT ( 'NONE',  ( 5.586370142149013368E-14, 2.249639673992780391E-32, 16.00000000000000000 ) ) ;
#194 = PRODUCT ( '57071', '57071', '', ( #66 ) ) ;
#195 = AXIS2_PLACEMENT_3D ( 'NONE', #79, #138, #15 ) ;
#196 = LOCAL_TIME ( 9, 38, 47.00000000000000000, #190 ) ;
#197 = CARTESIAN_POINT ( 'NONE',  ( 1.745740669421566678E-13, 1.874699728327312978E-32, 50.00000000000000000 ) ) ;
#198 = APPROVAL ( #150, 'UNSPECIFIED' ) ;
#199 = PERSON_AND_ORGANIZATION_ROLE ( 'design_owner' ) ;
#200 = AXIS2_PLACEMENT_3D ( 'NONE', #193, #44, #126 ) ;
#201 = DIRECTION ( 'NONE',  ( 0.0000000000000000000, 1.000000000000000000, 0.0000000000000000000 ) ) ;
#202 = EDGE_CURVE ( 'NONE', #113, #113, #105, .T. ) ;
#203 = EDGE_LOOP ( 'NONE', ( #48 ) ) ;
ENDSEC;
END-ISO-10303-21;
