ISO-10303-21;
HEADER;
FILE_DESCRIPTION (( 'STEP AP203' ),
    '1' );
FILE_NAME ('57070.step',
    '2021-11-09T08:38:46',
    ( '' ),
    ( '' ),
    'SwSTEP 2.0',
    'SolidWorks 2019',
    '' );
FILE_SCHEMA (( 'CONFIG_CONTROL_DESIGN' ));
ENDSEC;

DATA;
#1 = PLANE ( 'NONE',  #142 ) ;
#2 = PRODUCT_DEFINITION_FORMATION_WITH_SPECIFIED_SOURCE ( 'ANY', '', #202, .NOT_KNOWN. ) ;
#3 = CC_DESIGN_PERSON_AND_ORGANIZATION_ASSIGNMENT ( #89, #173, ( #35 ) ) ;
#4 = DIRECTION ( 'NONE',  ( -3.491481338843133355E-15, 1.224646799147353207E-16, -1.000000000000000000 ) ) ;
#5 = CALENDAR_DATE ( 2021, 9, 11 ) ;
#6 = PERSON_AND_ORGANIZATION_ROLE ( 'creator' ) ;
#7 = APPROVAL ( #70, 'UNSPECIFIED' ) ;
#8 = CC_DESIGN_SECURITY_CLASSIFICATION ( #63, ( #2 ) ) ;
#9 = EDGE_LOOP ( 'NONE', ( #48 ) ) ;
#10 = PLANE ( 'NONE',  #159 ) ;
#11 = FACE_BOUND ( 'NONE', #46, .T. ) ;
#12 = APPLICATION_CONTEXT ( 'configuration controlled 3d designs of mechanical parts and assemblies' ) ;
#13 = LOCAL_TIME ( 9, 38, 46.00000000000000000, #143 ) ;
#14 = DIRECTION ( 'NONE',  ( -4.275831445896958607E-31, -1.000000000000000000, -1.224646799147353207E-16 ) ) ;
#15 = DIRECTION ( 'NONE',  ( 0.0000000000000000000, 1.000000000000000000, 0.0000000000000000000 ) ) ;
#16 = DIRECTION ( 'NONE',  ( 4.275831445896958607E-31, 1.000000000000000000, 1.224646799147353207E-16 ) ) ;
#17 = COORDINATED_UNIVERSAL_TIME_OFFSET ( 1, 0, .AHEAD. ) ;
#18 = APPROVAL_DATE_TIME ( #161, #45 ) ;
#19 = CARTESIAN_POINT ( 'NONE',  ( 0.0000000000000000000, 0.0000000000000000000, 0.0000000000000000000 ) ) ;
#20 = APPROVAL_ROLE ( '' ) ;
#21 = MANIFOLD_SOLID_BREP ( 'Corps-Déplacer/Copier1[2]', #42 ) ;
#22 = EDGE_LOOP ( 'NONE', ( #164 ) ) ;
#23 = EDGE_CURVE ( 'NONE', #186, #186, #91, .T. ) ;
#24 = DIRECTION ( 'NONE',  ( 4.275831445896959482E-31, 1.000000000000000000, 1.224646799147353454E-16 ) ) ;
#25 = CARTESIAN_POINT ( 'NONE',  ( -9.620524822179518326E-31, 3.374425862892787875E-32, -2.755427822325747021E-16 ) ) ;
#26 = ADVANCED_FACE ( 'NONE', ( #67, #96 ), #201, .T. ) ;
#27 = VERTEX_POINT ( 'NONE', #170 ) ;
#28 = ADVANCED_FACE ( 'NONE', ( #179 ), #10, .F. ) ;
#29 = PERSON_AND_ORGANIZATION ( #168, #55 ) ;
#30 = ORIENTED_EDGE ( 'NONE', *, *, #190, .F. ) ;
#31 = CIRCLE ( 'NONE', #113, 2.000000000000000000 ) ;
#32 = LOCAL_TIME ( 9, 38, 46.00000000000000000, #171 ) ;
#33 = EDGE_LOOP ( 'NONE', ( #150 ) ) ;
#34 = APPROVAL_DATE_TIME ( #180, #7 ) ;
#35 = PRODUCT_DEFINITION ( 'UNKNOWN', '', #2, #174 ) ;
#36 = CARTESIAN_POINT ( 'NONE',  ( 4.888073874380386697E-14, -1.714505518806294638E-15, 14.00000000000000000 ) ) ;
#37 = CARTESIAN_POINT ( 'NONE',  ( 1.745740669421566678E-13, -6.123233995736766085E-15, 50.00000000000000000 ) ) ;
#38 = FACE_OUTER_BOUND ( 'NONE', #133, .T. ) ;
#39 = VERTEX_POINT ( 'NONE', #73 ) ;
#40 = APPROVAL_DATE_TIME ( #147, #81 ) ;
#41 = DIRECTION ( 'NONE',  ( 0.0000000000000000000, 0.0000000000000000000, 1.000000000000000000 ) ) ;
#42 = CLOSED_SHELL ( 'NONE', ( #64, #26, #93 ) ) ;
#43 = APPROVAL_PERSON_ORGANIZATION ( #182, #7, #154 ) ;
#44 = PERSON_AND_ORGANIZATION ( #168, #55 ) ;
#45 = APPROVAL ( #163, 'UNSPECIFIED' ) ;
#46 = EDGE_LOOP ( 'NONE', ( #117 ) ) ;
#47 = DIRECTION ( 'NONE',  ( 1.000000000000000000, 0.0000000000000000000, 0.0000000000000000000 ) ) ;
#48 = ORIENTED_EDGE ( 'NONE', *, *, #23, .T. ) ;
#49 = DATE_AND_TIME ( #115, #32 ) ;
#50 = FACE_OUTER_BOUND ( 'NONE', #22, .T. ) ;
#51 = DIRECTION ( 'NONE',  ( 4.275831445896959482E-31, 1.000000000000000000, 1.224646799147353454E-16 ) ) ;
#52 = DIRECTION ( 'NONE',  ( 0.0000000000000000000, 1.000000000000000000, 0.0000000000000000000 ) ) ;
#53 = CC_DESIGN_PERSON_AND_ORGANIZATION_ASSIGNMENT ( #60, #129, ( #2 ) ) ;
#54 = DIRECTION ( 'NONE',  ( -4.275831445896958607E-31, -1.000000000000000000, -1.224646799147353207E-16 ) ) ;
#55 = ORGANIZATION ( 'UNSPECIFIED', 'UNSPECIFIED', '' ) ;
#56 = CARTESIAN_POINT ( 'NONE',  ( 4.888073874380386697E-14, 2.499999999999993783, 14.00000000000000000 ) ) ;
#57 = APPROVAL_ROLE ( '' ) ;
#58 = APPROVAL_STATUS ( 'not_yet_approved' ) ;
#59 = EDGE_CURVE ( 'NONE', #87, #87, #31, .T. ) ;
#60 = PERSON_AND_ORGANIZATION ( #168, #55 ) ;
#61 = AXIS2_PLACEMENT_3D ( 'NONE', #19, #41, #47 ) ;
#62 = CIRCLE ( 'NONE', #95, 2.500000000000000000 ) ;
#63 = SECURITY_CLASSIFICATION ( '', '', #194 ) ;
#64 = ADVANCED_FACE ( 'NONE', ( #167 ), #166, .F. ) ;
#65 = ORIENTED_EDGE ( 'NONE', *, *, #79, .F. ) ;
#66 = CALENDAR_DATE ( 2021, 9, 11 ) ;
#67 = FACE_OUTER_BOUND ( 'NONE', #110, .T. ) ;
#68 = DIRECTION ( 'NONE',  ( -3.491481338843133355E-15, 1.224646799147353207E-16, -1.000000000000000000 ) ) ;
#69 = PRODUCT_DEFINITION_SHAPE ( 'NONE', 'NONE',  #35 ) ;
#70 = APPROVAL_STATUS ( 'not_yet_approved' ) ;
#71 = DIRECTION ( 'NONE',  ( -4.275831445896958607E-31, -1.000000000000000000, -1.224646799147353207E-16 ) ) ;
#72 = CC_DESIGN_PERSON_AND_ORGANIZATION_ASSIGNMENT ( #125, #90, ( #202 ) ) ;
#73 = CARTESIAN_POINT ( 'NONE',  ( 1.069053792562852354E-31, 2.499999999999993783, 3.061891755426287241E-17 ) ) ;
#74 = DIRECTION ( 'NONE',  ( -3.491481338843133355E-15, 1.224646799147353207E-16, -1.000000000000000000 ) ) ;
#75 = AXIS2_PLACEMENT_3D ( 'NONE', #139, #68, #189 ) ;
#76 = DATE_AND_TIME ( #77, #162 ) ;
#77 = CALENDAR_DATE ( 2021, 9, 11 ) ;
#78 = UNCERTAINTY_MEASURE_WITH_UNIT (LENGTH_MEASURE( 1.000000000000000082E-05 ), #153, 'distance_accuracy_value', 'NONE');
#79 = EDGE_CURVE ( 'NONE', #39, #39, #82, .T. ) ;
#80 = ORIENTED_EDGE ( 'NONE', *, *, #190, .T. ) ;
#81 = APPROVAL ( #58, 'UNSPECIFIED' ) ;
#82 = CIRCLE ( 'NONE', #193, 2.499999999999993783 ) ;
#83 = DATE_TIME_ROLE ( 'classification_date' ) ;
#84 = MANIFOLD_SOLID_BREP ( 'Corps-Déplacer/Copier1[1]', #199 ) ;
#85 = ADVANCED_FACE ( 'NONE', ( #137, #11 ), #196, .T. ) ;
#86 = LOCAL_TIME ( 9, 38, 46.00000000000000000, #101 ) ;
#87 = VERTEX_POINT ( 'NONE', #156 ) ;
#88 = DIRECTION ( 'NONE',  ( -3.491481338843133355E-15, 1.224646799147353207E-16, -1.000000000000000000 ) ) ;
#89 = PERSON_AND_ORGANIZATION ( #168, #55 ) ;
#90 = PERSON_AND_ORGANIZATION_ROLE ( 'design_owner' ) ;
#91 = CIRCLE ( 'NONE', #126, 2.499999999999995559 ) ;
#92 = CC_DESIGN_APPROVAL ( #7, ( #63 ) ) ;
#93 = ADVANCED_FACE ( 'NONE', ( #105 ), #1, .T. ) ;
#94 = CC_DESIGN_DATE_AND_TIME_ASSIGNMENT ( #76, #145, ( #35 ) ) ;
#95 = AXIS2_PLACEMENT_3D ( 'NONE', #187, #4, #52 ) ;
#96 = FACE_OUTER_BOUND ( 'NONE', #198, .T. ) ;
#97 = AXIS2_PLACEMENT_3D ( 'NONE', #119, #184, #16 ) ;
#98 = CARTESIAN_POINT ( 'NONE',  ( 0.0000000000000000000, 0.0000000000000000000, 0.0000000000000000000 ) ) ;
#99 = CC_DESIGN_APPROVAL ( #81, ( #35 ) ) ;
#100 = DIRECTION ( 'NONE',  ( -3.491481338843133355E-15, 1.224646799147353207E-16, -1.000000000000000000 ) ) ;
#101 = COORDINATED_UNIVERSAL_TIME_OFFSET ( 1, 0, .AHEAD. ) ;
#102 = CARTESIAN_POINT ( 'NONE',  ( 4.888073874380386697E-14, 2.499999999999993783, 14.00000000000000000 ) ) ;
#103 = DIRECTION ( 'NONE',  ( 3.491481338843133355E-15, -1.224646799147353207E-16, 1.000000000000000000 ) ) ;
#104 = DIRECTION ( 'NONE',  ( -3.491481338843133355E-15, 1.224646799147353207E-16, -1.000000000000000000 ) ) ;
#105 = FACE_OUTER_BOUND ( 'NONE', #131, .T. ) ;
#106 = MECHANICAL_CONTEXT ( 'NONE', #128, 'mechanical' ) ;
#107 = CC_DESIGN_PERSON_AND_ORGANIZATION_ASSIGNMENT ( #44, #108, ( #63 ) ) ;
#108 = PERSON_AND_ORGANIZATION_ROLE ( 'classification_officer' ) ;
#109 = ADVANCED_FACE ( 'NONE', ( #38, #50 ), #140, .T. ) ;
#110 = EDGE_LOOP ( 'NONE', ( #65 ) ) ;
#111 = CARTESIAN_POINT ( 'NONE',  ( 4.888073874380386697E-14, -1.714505518806294638E-15, 14.00000000000000000 ) ) ;
#112 = APPLICATION_PROTOCOL_DEFINITION ( 'international standard', 'config_control_design', 1994, #128 ) ;
#113 = AXIS2_PLACEMENT_3D ( 'NONE', #37, #100, #121 ) ;
#114 = DIRECTION ( 'NONE',  ( -3.491481338843133355E-15, 1.224646799147353207E-16, -1.000000000000000000 ) ) ;
#115 = CALENDAR_DATE ( 2021, 9, 11 ) ;
#116 = ORIENTED_EDGE ( 'NONE', *, *, #130, .F. ) ;
#117 = ORIENTED_EDGE ( 'NONE', *, *, #59, .T. ) ;
#118 = AXIS2_PLACEMENT_3D ( 'NONE', #203, #88, #51 ) ;
#119 = CARTESIAN_POINT ( 'NONE',  ( 1.745740669421566678E-13, 1.499759782661848302E-32, 50.00000000000000000 ) ) ;
#120 = FACE_OUTER_BOUND ( 'NONE', #181, .T. ) ;
#121 = DIRECTION ( 'NONE',  ( 0.0000000000000000000, 1.000000000000000000, 0.0000000000000000000 ) ) ;
#122 = AXIS2_PLACEMENT_3D ( 'NONE', #124, #103, #14 ) ;
#123 = AXIS2_PLACEMENT_3D ( 'NONE', #36, #104, #15 ) ;
#124 = CARTESIAN_POINT ( 'NONE',  ( -4.810262411089759163E-31, 1.687212931446393937E-32, -1.377713911162873511E-16 ) ) ;
#125 = PERSON_AND_ORGANIZATION ( #168, #55 ) ;
#126 = AXIS2_PLACEMENT_3D ( 'NONE', #111, #114, #177 ) ;
#127 = APPROVAL_PERSON_ORGANIZATION ( #29, #45, #20 ) ;
#128 = APPLICATION_CONTEXT ( 'configuration controlled 3d designs of mechanical parts and assemblies' ) ;
#129 = PERSON_AND_ORGANIZATION_ROLE ( 'design_supplier' ) ;
#130 = EDGE_CURVE ( 'NONE', #27, #27, #62, .T. ) ;
#131 = EDGE_LOOP ( 'NONE', ( #30 ) ) ;
#132 =( NAMED_UNIT ( * ) SI_UNIT ( $, .STERADIAN. ) SOLID_ANGLE_UNIT ( ) );
#133 = EDGE_LOOP ( 'NONE', ( #149 ) ) ;
#134 = CARTESIAN_POINT ( 'NONE',  ( 4.888073874380386697E-14, 1.874699728327316262E-32, 14.00000000000000000 ) ) ;
#135 = DIRECTION ( 'NONE',  ( 4.275831445896958607E-31, 1.000000000000000000, 1.224646799147353207E-16 ) ) ;
#136 = CARTESIAN_POINT ( 'NONE',  ( 4.888073874380386697E-14, 1.874699728327316262E-32, 14.00000000000000000 ) ) ;
#137 = FACE_OUTER_BOUND ( 'NONE', #176, .T. ) ;
#138 = AXIS2_PLACEMENT_3D ( 'NONE', #98, #165, #135 ) ;
#139 = CARTESIAN_POINT ( 'NONE',  ( 1.745740669421566678E-13, -6.123233995736766085E-15, 50.00000000000000000 ) ) ;
#140 = CYLINDRICAL_SURFACE ( 'NONE', #118, 2.499999999999997780 ) ;
#141 = DIRECTION ( 'NONE',  ( 3.491481338843133355E-15, -1.224646799147353207E-16, 1.000000000000000000 ) ) ;
#142 = AXIS2_PLACEMENT_3D ( 'NONE', #136, #141, #71 ) ;
#143 = COORDINATED_UNIVERSAL_TIME_OFFSET ( 1, 0, .AHEAD. ) ;
#144 = CC_DESIGN_DATE_AND_TIME_ASSIGNMENT ( #49, #83, ( #63 ) ) ;
#145 = DATE_TIME_ROLE ( 'creation_date' ) ;
#146 = PERSON_AND_ORGANIZATION ( #168, #55 ) ;
#147 = DATE_AND_TIME ( #191, #13 ) ;
#148 = ADVANCED_FACE ( 'NONE', ( #120 ), #169, .F. ) ;
#149 = ORIENTED_EDGE ( 'NONE', *, *, #23, .F. ) ;
#150 = ORIENTED_EDGE ( 'NONE', *, *, #79, .T. ) ;
#151 = APPROVAL_PERSON_ORGANIZATION ( #160, #81, #57 ) ;
#152 = SHAPE_DEFINITION_REPRESENTATION ( #69, #195 ) ;
#153 =( LENGTH_UNIT ( ) NAMED_UNIT ( * ) SI_UNIT ( .MILLI., .METRE. ) );
#154 = APPROVAL_ROLE ( '' ) ;
#155 = DIRECTION ( 'NONE',  ( 3.491481338843133355E-15, -1.224646799147353207E-16, 1.000000000000000000 ) ) ;
#156 = CARTESIAN_POINT ( 'NONE',  ( 1.745740669421566678E-13, 1.999999999999994005, 50.00000000000000000 ) ) ;
#157 = VERTEX_POINT ( 'NONE', #56 ) ;
#158 = APPLICATION_PROTOCOL_DEFINITION ( 'international standard', 'config_control_design', 1994, #12 ) ;
#159 = AXIS2_PLACEMENT_3D ( 'NONE', #134, #155, #54 ) ;
#160 = PERSON_AND_ORGANIZATION ( #168, #55 ) ;
#161 = DATE_AND_TIME ( #5, #178 ) ;
#162 = LOCAL_TIME ( 9, 38, 46.00000000000000000, #17 ) ;
#163 = APPROVAL_STATUS ( 'not_yet_approved' ) ;
#164 = ORIENTED_EDGE ( 'NONE', *, *, #130, .T. ) ;
#165 = DIRECTION ( 'NONE',  ( -3.491481338843133355E-15, 1.224646799147353207E-16, -1.000000000000000000 ) ) ;
#166 = PLANE ( 'NONE',  #122 ) ;
#167 = FACE_OUTER_BOUND ( 'NONE', #33, .T. ) ;
#168 = PERSON ( 'UNSPECIFIED', 'UNSPECIFIED', 'UNSPECIFIED', ('UNSPECIFIED'), ('UNSPECIFIED'), ('UNSPECIFIED') ) ;
#169 = PLANE ( 'NONE',  #97 ) ;
#170 = CARTESIAN_POINT ( 'NONE',  ( 1.728283262727351074E-13, 2.499999999999993783, 49.50000000000000000 ) ) ;
#171 = COORDINATED_UNIVERSAL_TIME_OFFSET ( 1, 0, .AHEAD. ) ;
#172 = CC_DESIGN_PERSON_AND_ORGANIZATION_ASSIGNMENT ( #146, #6, ( #2 ) ) ;
#173 = PERSON_AND_ORGANIZATION_ROLE ( 'creator' ) ;
#174 = DESIGN_CONTEXT ( 'detailed design', #12, 'design' ) ;
#175 = CC_DESIGN_APPROVAL ( #45, ( #2 ) ) ;
#176 = EDGE_LOOP ( 'NONE', ( #116 ) ) ;
#177 = DIRECTION ( 'NONE',  ( 0.0000000000000000000, 1.000000000000000000, 0.0000000000000000000 ) ) ;
#178 = LOCAL_TIME ( 9, 38, 46.00000000000000000, #192 ) ;
#179 = FACE_OUTER_BOUND ( 'NONE', #9, .T. ) ;
#180 = DATE_AND_TIME ( #66, #86 ) ;
#181 = EDGE_LOOP ( 'NONE', ( #200 ) ) ;
#182 = PERSON_AND_ORGANIZATION ( #168, #55 ) ;
#183 =( NAMED_UNIT ( * ) PLANE_ANGLE_UNIT ( ) SI_UNIT ( $, .RADIAN. ) );
#184 = DIRECTION ( 'NONE',  ( -3.491481338843133355E-15, 1.224646799147353207E-16, -1.000000000000000000 ) ) ;
#185 = PRODUCT_RELATED_PRODUCT_CATEGORY ( 'detail', '', ( #202 ) ) ;
#186 = VERTEX_POINT ( 'NONE', #102 ) ;
#187 = CARTESIAN_POINT ( 'NONE',  ( 1.728283262727351074E-13, -6.062001655779398511E-15, 49.50000000000000000 ) ) ;
#188 = CIRCLE ( 'NONE', #123, 2.499999999999995559 ) ;
#189 = DIRECTION ( 'NONE',  ( 0.0000000000000000000, 1.000000000000000000, 0.0000000000000000000 ) ) ;
#190 = EDGE_CURVE ( 'NONE', #157, #157, #188, .T. ) ;
#191 = CALENDAR_DATE ( 2021, 9, 11 ) ;
#192 = COORDINATED_UNIVERSAL_TIME_OFFSET ( 1, 0, .AHEAD. ) ;
#193 = AXIS2_PLACEMENT_3D ( 'NONE', #25, #74, #24 ) ;
#194 = SECURITY_CLASSIFICATION_LEVEL ( 'unclassified' ) ;
#195 = ADVANCED_BREP_SHAPE_REPRESENTATION ( '57070', ( #84, #21, #61 ), #197 ) ;
#196 = CONICAL_SURFACE ( 'NONE', #75, 2.000000000000000000, 0.7853981633974479459 ) ;
#197 =( GEOMETRIC_REPRESENTATION_CONTEXT ( 3 ) GLOBAL_UNCERTAINTY_ASSIGNED_CONTEXT ( ( #78 ) ) GLOBAL_UNIT_ASSIGNED_CONTEXT ( ( #153, #183, #132 ) ) REPRESENTATION_CONTEXT ( 'NONE', 'WORKASPACE' ) );
#198 = EDGE_LOOP ( 'NONE', ( #80 ) ) ;
#199 = CLOSED_SHELL ( 'NONE', ( #28, #109, #85, #148 ) ) ;
#200 = ORIENTED_EDGE ( 'NONE', *, *, #59, .F. ) ;
#201 = CYLINDRICAL_SURFACE ( 'NONE', #138, 2.499999999999994671 ) ;
#202 = PRODUCT ( '57070', '57070', '', ( #106 ) ) ;
#203 = CARTESIAN_POINT ( 'NONE',  ( 0.0000000000000000000, 0.0000000000000000000, 0.0000000000000000000 ) ) ;
ENDSEC;
END-ISO-10303-21;
