ISO-10303-21;
HEADER;
FILE_DESCRIPTION (( 'STEP AP203' ),
    '1' );
FILE_NAME ('57069.step',
    '2021-11-09T08:38:46',
    ( '' ),
    ( '' ),
    'SwSTEP 2.0',
    'SolidWorks 2019',
    '' );
FILE_SCHEMA (( 'CONFIG_CONTROL_DESIGN' ));
ENDSEC;

DATA;
#1 = ADVANCED_FACE ( 'NONE', ( #29 ), #192, .F. ) ;
#2 = DIRECTION ( 'NONE',  ( 4.275831445896958607E-31, 1.000000000000000000, 1.224646799147353454E-16 ) ) ;
#3 = CALENDAR_DATE ( 2021, 9, 11 ) ;
#4 = APPROVAL_ROLE ( '' ) ;
#5 = EDGE_CURVE ( 'NONE', #198, #198, #108, .T. ) ;
#6 = CARTESIAN_POINT ( 'NONE',  ( 0.0000000000000000000, 0.0000000000000000000, 0.0000000000000000000 ) ) ;
#7 = EDGE_LOOP ( 'NONE', ( #143 ) ) ;
#8 = PERSON_AND_ORGANIZATION ( #105, #60 ) ;
#9 = DESIGN_CONTEXT ( 'detailed design', #66, 'design' ) ;
#10 = PLANE ( 'NONE',  #77 ) ;
#11 = DIRECTION ( 'NONE',  ( -4.275831445896958607E-31, -1.000000000000000000, -1.224646799147353207E-16 ) ) ;
#12 = DIRECTION ( 'NONE',  ( 4.275831445896957731E-31, 1.000000000000000000, 1.224646799147353207E-16 ) ) ;
#13 = AXIS2_PLACEMENT_3D ( 'NONE', #178, #125, #30 ) ;
#14 = SECURITY_CLASSIFICATION ( '', '', #20 ) ;
#15 = ORIENTED_EDGE ( 'NONE', *, *, #175, .T. ) ;
#16 = ORIENTED_EDGE ( 'NONE', *, *, #18, .F. ) ;
#17 = PERSON_AND_ORGANIZATION ( #105, #60 ) ;
#18 = EDGE_CURVE ( 'NONE', #25, #25, #150, .T. ) ;
#19 = DATE_TIME_ROLE ( 'creation_date' ) ;
#20 = SECURITY_CLASSIFICATION_LEVEL ( 'unclassified' ) ;
#21 = CALENDAR_DATE ( 2021, 9, 11 ) ;
#22 = DIRECTION ( 'NONE',  ( -3.491481338843133355E-15, 1.224646799147353207E-16, -1.000000000000000000 ) ) ;
#23 = CYLINDRICAL_SURFACE ( 'NONE', #128, 2.249999999999997780 ) ;
#24 = PRODUCT ( '57069', '57069', '', ( #197 ) ) ;
#25 = VERTEX_POINT ( 'NONE', #135 ) ;
#26 = CC_DESIGN_APPROVAL ( #83, ( #163 ) ) ;
#27 = CARTESIAN_POINT ( 'NONE',  ( 1.745740669421566678E-13, 1.849999999999993872, 50.00000000000000000 ) ) ;
#28 = ORIENTED_EDGE ( 'NONE', *, *, #5, .F. ) ;
#29 = FACE_OUTER_BOUND ( 'NONE', #161, .T. ) ;
#30 = DIRECTION ( 'NONE',  ( 0.0000000000000000000, 1.000000000000000000, 0.0000000000000000000 ) ) ;
#31 = APPLICATION_PROTOCOL_DEFINITION ( 'international standard', 'config_control_design', 1994, #66 ) ;
#32 = DATE_AND_TIME ( #78, #196 ) ;
#33 = PERSON_AND_ORGANIZATION_ROLE ( 'classification_officer' ) ;
#34 = LOCAL_TIME ( 9, 38, 46.00000000000000000, #151 ) ;
#35 = CC_DESIGN_PERSON_AND_ORGANIZATION_ASSIGNMENT ( #131, #52, ( #24 ) ) ;
#36 = PERSON_AND_ORGANIZATION_ROLE ( 'creator' ) ;
#37 = PERSON_AND_ORGANIZATION ( #105, #60 ) ;
#38 = FACE_OUTER_BOUND ( 'NONE', #123, .T. ) ;
#39 = FACE_OUTER_BOUND ( 'NONE', #90, .T. ) ;
#40 = CARTESIAN_POINT ( 'NONE',  ( 1.069053792562852354E-31, 2.249999999999993783, 3.061891755426287241E-17 ) ) ;
#41 = CARTESIAN_POINT ( 'NONE',  ( 4.189777606611760026E-14, 2.249999999999993783, 12.00000000000000000 ) ) ;
#42 = AXIS2_PLACEMENT_3D ( 'NONE', #56, #69, #170 ) ;
#43 = ADVANCED_FACE ( 'NONE', ( #190 ), #107, .F. ) ;
#44 =( GEOMETRIC_REPRESENTATION_CONTEXT ( 3 ) GLOBAL_UNCERTAINTY_ASSIGNED_CONTEXT ( ( #54 ) ) GLOBAL_UNIT_ASSIGNED_CONTEXT ( ( #68, #49, #193 ) ) REPRESENTATION_CONTEXT ( 'NONE', 'WORKASPACE' ) );
#45 = EDGE_LOOP ( 'NONE', ( #28 ) ) ;
#46 = CARTESIAN_POINT ( 'NONE',  ( 4.189777606611760026E-14, 1.687229755494584061E-32, 12.00000000000000000 ) ) ;
#47 = APPROVAL_DATE_TIME ( #32, #83 ) ;
#48 = APPROVAL_ROLE ( '' ) ;
#49 =( NAMED_UNIT ( * ) PLANE_ANGLE_UNIT ( ) SI_UNIT ( $, .RADIAN. ) );
#50 = APPROVAL_DATE_TIME ( #93, #119 ) ;
#51 = CIRCLE ( 'NONE', #172, 1.849999999999999867 ) ;
#52 = PERSON_AND_ORGANIZATION_ROLE ( 'design_owner' ) ;
#53 = CARTESIAN_POINT ( 'NONE',  ( -4.275783480352639556E-31, 1.499742958613661463E-32, -1.224633061269454329E-16 ) ) ;
#54 = UNCERTAINTY_MEASURE_WITH_UNIT (LENGTH_MEASURE( 1.000000000000000082E-05 ), #68, 'distance_accuracy_value', 'NONE');
#55 = FACE_OUTER_BOUND ( 'NONE', #124, .T. ) ;
#56 = CARTESIAN_POINT ( 'NONE',  ( 4.189777606611760026E-14, -1.469576158976823947E-15, 12.00000000000000000 ) ) ;
#57 = CARTESIAN_POINT ( 'NONE',  ( 1.745740669421566678E-13, -6.123233995736766085E-15, 50.00000000000000000 ) ) ;
#58 = MANIFOLD_SOLID_BREP ( 'Corps-Déplacer/Copier1[2]', #59 ) ;
#59 = CLOSED_SHELL ( 'NONE', ( #43, #157, #116 ) ) ;
#60 = ORGANIZATION ( 'UNSPECIFIED', 'UNSPECIFIED', '' ) ;
#61 = ORIENTED_EDGE ( 'NONE', *, *, #191, .F. ) ;
#62 = CC_DESIGN_DATE_AND_TIME_ASSIGNMENT ( #111, #162, ( #14 ) ) ;
#63 = CARTESIAN_POINT ( 'NONE',  ( -8.551566960705279113E-31, 2.999485917227322926E-32, -2.449266122538908658E-16 ) ) ;
#64 = APPROVAL_DATE_TIME ( #96, #106 ) ;
#65 = APPLICATION_PROTOCOL_DEFINITION ( 'international standard', 'config_control_design', 1994, #79 ) ;
#66 = APPLICATION_CONTEXT ( 'configuration controlled 3d designs of mechanical parts and assemblies' ) ;
#67 = PERSON_AND_ORGANIZATION ( #105, #60 ) ;
#68 =( LENGTH_UNIT ( ) NAMED_UNIT ( * ) SI_UNIT ( .MILLI., .METRE. ) );
#69 = DIRECTION ( 'NONE',  ( -3.491481338843133355E-15, 1.224646799147353207E-16, -1.000000000000000000 ) ) ;
#70 = CARTESIAN_POINT ( 'NONE',  ( 0.0000000000000000000, 0.0000000000000000000, 0.0000000000000000000 ) ) ;
#71 = DIRECTION ( 'NONE',  ( 0.0000000000000000000, 1.000000000000000000, 0.0000000000000000000 ) ) ;
#72 = CC_DESIGN_PERSON_AND_ORGANIZATION_ASSIGNMENT ( #8, #33, ( #14 ) ) ;
#73 = EDGE_LOOP ( 'NONE', ( #103 ) ) ;
#74 = ADVANCED_FACE ( 'NONE', ( #80, #39 ), #23, .T. ) ;
#75 = DIRECTION ( 'NONE',  ( -4.275831445896958607E-31, -1.000000000000000000, -1.224646799147353207E-16 ) ) ;
#76 = DIRECTION ( 'NONE',  ( 0.0000000000000000000, 0.0000000000000000000, 1.000000000000000000 ) ) ;
#77 = AXIS2_PLACEMENT_3D ( 'NONE', #100, #183, #98 ) ;
#78 = CALENDAR_DATE ( 2021, 9, 11 ) ;
#79 = APPLICATION_CONTEXT ( 'configuration controlled 3d designs of mechanical parts and assemblies' ) ;
#80 = FACE_OUTER_BOUND ( 'NONE', #7, .T. ) ;
#81 = DIRECTION ( 'NONE',  ( -3.491481338843133355E-15, 1.224646799147353207E-16, -1.000000000000000000 ) ) ;
#82 = EDGE_LOOP ( 'NONE', ( #61 ) ) ;
#83 = APPROVAL ( #149, 'UNSPECIFIED' ) ;
#84 = DIRECTION ( 'NONE',  ( -4.275831445896958607E-31, -1.000000000000000000, -1.224646799147353207E-16 ) ) ;
#85 = APPROVAL_PERSON_ORGANIZATION ( #17, #119, #4 ) ;
#86 = FACE_BOUND ( 'NONE', #73, .T. ) ;
#87 = ORIENTED_EDGE ( 'NONE', *, *, #169, .F. ) ;
#88 = CLOSED_SHELL ( 'NONE', ( #1, #74, #94, #146 ) ) ;
#89 = EDGE_LOOP ( 'NONE', ( #87 ) ) ;
#90 = EDGE_LOOP ( 'NONE', ( #174 ) ) ;
#91 = CALENDAR_DATE ( 2021, 9, 11 ) ;
#92 = AXIS2_PLACEMENT_3D ( 'NONE', #97, #81, #200 ) ;
#93 = DATE_AND_TIME ( #195, #159 ) ;
#94 = ADVANCED_FACE ( 'NONE', ( #118, #86 ), #138, .T. ) ;
#95 = PERSON_AND_ORGANIZATION ( #105, #60 ) ;
#96 = DATE_AND_TIME ( #3, #34 ) ;
#97 = CARTESIAN_POINT ( 'NONE',  ( 0.0000000000000000000, 0.0000000000000000000, 0.0000000000000000000 ) ) ;
#98 = DIRECTION ( 'NONE',  ( 4.275831445896958607E-31, 1.000000000000000000, 1.224646799147353207E-16 ) ) ;
#99 = PRODUCT_DEFINITION_SHAPE ( 'NONE', 'NONE',  #163 ) ;
#100 = CARTESIAN_POINT ( 'NONE',  ( 1.745740669421566678E-13, 1.387277798962208982E-32, 50.00000000000000000 ) ) ;
#101 = AXIS2_PLACEMENT_3D ( 'NONE', #46, #160, #75 ) ;
#102 = VERTEX_POINT ( 'NONE', #27 ) ;
#103 = ORIENTED_EDGE ( 'NONE', *, *, #191, .T. ) ;
#104 = LOCAL_TIME ( 9, 38, 46.00000000000000000, #181 ) ;
#105 = PERSON ( 'UNSPECIFIED', 'UNSPECIFIED', 'UNSPECIFIED', ('UNSPECIFIED'), ('UNSPECIFIED'), ('UNSPECIFIED') ) ;
#106 = APPROVAL ( #110, 'UNSPECIFIED' ) ;
#107 = PLANE ( 'NONE',  #176 ) ;
#108 = CIRCLE ( 'NONE', #203, 2.249999999999993783 ) ;
#109 = DIRECTION ( 'NONE',  ( -3.491481338843133355E-15, 1.224646799147353207E-16, -1.000000000000000000 ) ) ;
#110 = APPROVAL_STATUS ( 'not_yet_approved' ) ;
#111 = DATE_AND_TIME ( #21, #180 ) ;
#112 = DIRECTION ( 'NONE',  ( 1.000000000000000000, 0.0000000000000000000, 0.0000000000000000000 ) ) ;
#113 = CIRCLE ( 'NONE', #42, 2.249999999999995115 ) ;
#114 = CC_DESIGN_PERSON_AND_ORGANIZATION_ASSIGNMENT ( #167, #166, ( #141 ) ) ;
#115 = COORDINATED_UNIVERSAL_TIME_OFFSET ( 1, 0, .AHEAD. ) ;
#116 = ADVANCED_FACE ( 'NONE', ( #55 ), #117, .T. ) ;
#117 = PLANE ( 'NONE',  #184 ) ;
#118 = FACE_OUTER_BOUND ( 'NONE', #89, .T. ) ;
#119 = APPROVAL ( #147, 'UNSPECIFIED' ) ;
#120 = DIRECTION ( 'NONE',  ( -3.491481338843133355E-15, 1.224646799147353207E-16, -1.000000000000000000 ) ) ;
#121 = CARTESIAN_POINT ( 'NONE',  ( 1.731774744066194397E-13, 2.249999999999993783, 49.60000000000000853 ) ) ;
#122 = APPROVAL_PERSON_ORGANIZATION ( #37, #106, #179 ) ;
#123 = EDGE_LOOP ( 'NONE', ( #177 ) ) ;
#124 = EDGE_LOOP ( 'NONE', ( #16 ) ) ;
#125 = DIRECTION ( 'NONE',  ( -3.491481338843133355E-15, 1.224646799147353207E-16, -1.000000000000000000 ) ) ;
#126 = PERSON_AND_ORGANIZATION_ROLE ( 'creator' ) ;
#127 = COORDINATED_UNIVERSAL_TIME_OFFSET ( 1, 0, .AHEAD. ) ;
#128 = AXIS2_PLACEMENT_3D ( 'NONE', #70, #22, #12 ) ;
#129 = CC_DESIGN_PERSON_AND_ORGANIZATION_ASSIGNMENT ( #95, #126, ( #141 ) ) ;
#130 = AXIS2_PLACEMENT_3D ( 'NONE', #153, #173, #71 ) ;
#131 = PERSON_AND_ORGANIZATION ( #105, #60 ) ;
#132 = SHAPE_DEFINITION_REPRESENTATION ( #99, #148 ) ;
#133 = DIRECTION ( 'NONE',  ( 3.491481338843133355E-15, -1.224646799147353207E-16, 1.000000000000000000 ) ) ;
#134 = CC_DESIGN_APPROVAL ( #119, ( #14 ) ) ;
#135 = CARTESIAN_POINT ( 'NONE',  ( 4.189777606611760026E-14, 2.249999999999993783, 12.00000000000000000 ) ) ;
#136 = CIRCLE ( 'NONE', #130, 2.250000000000000000 ) ;
#137 = DIRECTION ( 'NONE',  ( 3.491481338843133355E-15, -1.224646799147353207E-16, 1.000000000000000000 ) ) ;
#138 = CONICAL_SURFACE ( 'NONE', #158, 1.849999999999999867, 0.7853981633974512766 ) ;
#139 = VERTEX_POINT ( 'NONE', #121 ) ;
#140 = PRODUCT_RELATED_PRODUCT_CATEGORY ( 'detail', '', ( #24 ) ) ;
#141 = PRODUCT_DEFINITION_FORMATION_WITH_SPECIFIED_SOURCE ( 'ANY', '', #24, .NOT_KNOWN. ) ;
#142 = ORIENTED_EDGE ( 'NONE', *, *, #5, .T. ) ;
#143 = ORIENTED_EDGE ( 'NONE', *, *, #175, .F. ) ;
#144 = CC_DESIGN_PERSON_AND_ORGANIZATION_ASSIGNMENT ( #67, #36, ( #163 ) ) ;
#145 = PERSON_AND_ORGANIZATION ( #105, #60 ) ;
#146 = ADVANCED_FACE ( 'NONE', ( #201 ), #10, .F. ) ;
#147 = APPROVAL_STATUS ( 'not_yet_approved' ) ;
#148 = ADVANCED_BREP_SHAPE_REPRESENTATION ( '57069', ( #199, #58, #164 ), #44 ) ;
#149 = APPROVAL_STATUS ( 'not_yet_approved' ) ;
#150 = CIRCLE ( 'NONE', #13, 2.249999999999995115 ) ;
#151 = COORDINATED_UNIVERSAL_TIME_OFFSET ( 1, 0, .AHEAD. ) ;
#152 = CYLINDRICAL_SURFACE ( 'NONE', #92, 2.249999999999994227 ) ;
#153 = CARTESIAN_POINT ( 'NONE',  ( 1.731774744066194397E-13, -6.074248123770872657E-15, 49.60000000000000853 ) ) ;
#154 = EDGE_LOOP ( 'NONE', ( #142 ) ) ;
#155 = CC_DESIGN_APPROVAL ( #106, ( #141 ) ) ;
#156 = DIRECTION ( 'NONE',  ( 0.0000000000000000000, 1.000000000000000000, 0.0000000000000000000 ) ) ;
#157 = ADVANCED_FACE ( 'NONE', ( #171, #38 ), #152, .T. ) ;
#158 = AXIS2_PLACEMENT_3D ( 'NONE', #182, #185, #156 ) ;
#159 = LOCAL_TIME ( 9, 38, 46.00000000000000000, #127 ) ;
#160 = DIRECTION ( 'NONE',  ( 3.491481338843133355E-15, -1.224646799147353207E-16, 1.000000000000000000 ) ) ;
#161 = EDGE_LOOP ( 'NONE', ( #15 ) ) ;
#162 = DATE_TIME_ROLE ( 'classification_date' ) ;
#163 = PRODUCT_DEFINITION ( 'UNKNOWN', '', #141, #9 ) ;
#164 = AXIS2_PLACEMENT_3D ( 'NONE', #6, #76, #112 ) ;
#165 = DATE_AND_TIME ( #91, #104 ) ;
#166 = PERSON_AND_ORGANIZATION_ROLE ( 'design_supplier' ) ;
#167 = PERSON_AND_ORGANIZATION ( #105, #60 ) ;
#168 = DIRECTION ( 'NONE',  ( 0.0000000000000000000, 1.000000000000000000, 0.0000000000000000000 ) ) ;
#169 = EDGE_CURVE ( 'NONE', #139, #139, #136, .T. ) ;
#170 = DIRECTION ( 'NONE',  ( 0.0000000000000000000, 1.000000000000000000, 0.0000000000000000000 ) ) ;
#171 = FACE_OUTER_BOUND ( 'NONE', #45, .T. ) ;
#172 = AXIS2_PLACEMENT_3D ( 'NONE', #57, #120, #168 ) ;
#173 = DIRECTION ( 'NONE',  ( -3.491481338843133355E-15, 1.224646799147353207E-16, -1.000000000000000000 ) ) ;
#174 = ORIENTED_EDGE ( 'NONE', *, *, #169, .T. ) ;
#175 = EDGE_CURVE ( 'NONE', #187, #187, #113, .T. ) ;
#176 = AXIS2_PLACEMENT_3D ( 'NONE', #53, #137, #11 ) ;
#177 = ORIENTED_EDGE ( 'NONE', *, *, #18, .T. ) ;
#178 = CARTESIAN_POINT ( 'NONE',  ( 4.189777606611760026E-14, -1.469576158976823947E-15, 12.00000000000000000 ) ) ;
#179 = APPROVAL_ROLE ( '' ) ;
#180 = LOCAL_TIME ( 9, 38, 46.00000000000000000, #194 ) ;
#181 = COORDINATED_UNIVERSAL_TIME_OFFSET ( 1, 0, .AHEAD. ) ;
#182 = CARTESIAN_POINT ( 'NONE',  ( 1.745740669421566678E-13, -6.123233995736766085E-15, 50.00000000000000000 ) ) ;
#183 = DIRECTION ( 'NONE',  ( -3.491481338843133355E-15, 1.224646799147353207E-16, -1.000000000000000000 ) ) ;
#184 = AXIS2_PLACEMENT_3D ( 'NONE', #202, #133, #84 ) ;
#185 = DIRECTION ( 'NONE',  ( -3.491481338843133355E-15, 1.224646799147353207E-16, -1.000000000000000000 ) ) ;
#186 = CC_DESIGN_DATE_AND_TIME_ASSIGNMENT ( #165, #19, ( #163 ) ) ;
#187 = VERTEX_POINT ( 'NONE', #41 ) ;
#188 = CC_DESIGN_SECURITY_CLASSIFICATION ( #14, ( #141 ) ) ;
#189 = APPROVAL_PERSON_ORGANIZATION ( #145, #83, #48 ) ;
#190 = FACE_OUTER_BOUND ( 'NONE', #154, .T. ) ;
#191 = EDGE_CURVE ( 'NONE', #102, #102, #51, .T. ) ;
#192 = PLANE ( 'NONE',  #101 ) ;
#193 =( NAMED_UNIT ( * ) SI_UNIT ( $, .STERADIAN. ) SOLID_ANGLE_UNIT ( ) );
#194 = COORDINATED_UNIVERSAL_TIME_OFFSET ( 1, 0, .AHEAD. ) ;
#195 = CALENDAR_DATE ( 2021, 9, 11 ) ;
#196 = LOCAL_TIME ( 9, 38, 46.00000000000000000, #115 ) ;
#197 = MECHANICAL_CONTEXT ( 'NONE', #79, 'mechanical' ) ;
#198 = VERTEX_POINT ( 'NONE', #40 ) ;
#199 = MANIFOLD_SOLID_BREP ( 'Corps-Déplacer/Copier1[1]', #88 ) ;
#200 = DIRECTION ( 'NONE',  ( 4.275831445896958607E-31, 1.000000000000000000, 1.224646799147353207E-16 ) ) ;
#201 = FACE_OUTER_BOUND ( 'NONE', #82, .T. ) ;
#202 = CARTESIAN_POINT ( 'NONE',  ( 4.189777606611760026E-14, 1.687229755494584061E-32, 12.00000000000000000 ) ) ;
#203 = AXIS2_PLACEMENT_3D ( 'NONE', #63, #109, #2 ) ;
ENDSEC;
END-ISO-10303-21;
