ISO-10303-21;
HEADER;
FILE_DESCRIPTION (( 'STEP AP203' ),
    '1' );
FILE_NAME ('57068.step',
    '2021-11-09T08:38:45',
    ( '' ),
    ( '' ),
    'SwSTEP 2.0',
    'SolidWorks 2019',
    '' );
FILE_SCHEMA (( 'CONFIG_CONTROL_DESIGN' ));
ENDSEC;

DATA;
#1 = APPROVAL_PERSON_ORGANIZATION ( #14, #147, #153 ) ;
#2 = EDGE_LOOP ( 'NONE', ( #80 ) ) ;
#3 = ORIENTED_EDGE ( 'NONE', *, *, #190, .T. ) ;
#4 = ADVANCED_FACE ( 'NONE', ( #85, #99 ), #91, .T. ) ;
#5 = CARTESIAN_POINT ( 'NONE',  ( 0.0000000000000000000, 0.0000000000000000000, 0.0000000000000000000 ) ) ;
#6 = SECURITY_CLASSIFICATION_LEVEL ( 'unclassified' ) ;
#7 = DIRECTION ( 'NONE',  ( 0.0000000000000000000, 1.000000000000000000, 0.0000000000000000000 ) ) ;
#8 = APPROVAL ( #161, 'UNSPECIFIED' ) ;
#9 = DIRECTION ( 'NONE',  ( -4.275831445896958607E-31, -1.000000000000000000, -1.224646799147353207E-16 ) ) ;
#10 = VERTEX_POINT ( 'NONE', #28 ) ;
#11 = DIRECTION ( 'NONE',  ( 3.491481338843133355E-15, -1.224646799147353207E-16, 1.000000000000000000 ) ) ;
#12 = COORDINATED_UNIVERSAL_TIME_OFFSET ( 1, 0, .AHEAD. ) ;
#13 = CC_DESIGN_PERSON_AND_ORGANIZATION_ASSIGNMENT ( #79, #84, ( #41 ) ) ;
#14 = PERSON_AND_ORGANIZATION ( #137, #116 ) ;
#15 = VERTEX_POINT ( 'NONE', #32 ) ;
#16 = EDGE_CURVE ( 'NONE', #87, #87, #98, .T. ) ;
#17 = AXIS2_PLACEMENT_3D ( 'NONE', #38, #24, #64 ) ;
#18 = CC_DESIGN_DATE_AND_TIME_ASSIGNMENT ( #196, #124, ( #144 ) ) ;
#19 = CIRCLE ( 'NONE', #138, 2.000000000000001332 ) ;
#20 = EDGE_LOOP ( 'NONE', ( #78 ) ) ;
#21 = SHAPE_DEFINITION_REPRESENTATION ( #174, #103 ) ;
#22 = CARTESIAN_POINT ( 'NONE',  ( 1.731774744066194397E-13, -6.074248123770872657E-15, 49.60000000000000853 ) ) ;
#23 = MANIFOLD_SOLID_BREP ( 'Corps-Déplacer/Copier1[1]', #150 ) ;
#24 = DIRECTION ( 'NONE',  ( -3.491481338843133355E-15, 1.224646799147353207E-16, -1.000000000000000000 ) ) ;
#25 = ADVANCED_FACE ( 'NONE', ( #199 ), #26, .F. ) ;
#26 = PLANE ( 'NONE',  #114 ) ;
#27 = LOCAL_TIME ( 9, 38, 45.00000000000000000, #12 ) ;
#28 = CARTESIAN_POINT ( 'NONE',  ( 1.745740669421566678E-13, 1.599999999999995204, 50.00000000000000000 ) ) ;
#29 = ADVANCED_FACE ( 'NONE', ( #180, #54 ), #57, .T. ) ;
#30 = DIRECTION ( 'NONE',  ( 0.0000000000000000000, 0.0000000000000000000, 1.000000000000000000 ) ) ;
#31 = CC_DESIGN_APPROVAL ( #8, ( #46 ) ) ;
#32 = CARTESIAN_POINT ( 'NONE',  ( 4.189777606611760026E-14, 1.999999999999995337, 12.00000000000000000 ) ) ;
#33 = AXIS2_PLACEMENT_3D ( 'NONE', #121, #43, #184 ) ;
#34 = CC_DESIGN_PERSON_AND_ORGANIZATION_ASSIGNMENT ( #45, #173, ( #46 ) ) ;
#35 = PERSON_AND_ORGANIZATION ( #137, #116 ) ;
#36 = DIRECTION ( 'NONE',  ( 3.491481338843133355E-15, -1.224646799147353207E-16, 1.000000000000000000 ) ) ;
#37 = APPROVAL_PERSON_ORGANIZATION ( #35, #188, #145 ) ;
#38 = CARTESIAN_POINT ( 'NONE',  ( 4.189777606611760026E-14, -1.469576158976823947E-15, 12.00000000000000000 ) ) ;
#39 = EDGE_LOOP ( 'NONE', ( #105 ) ) ;
#40 = FACE_OUTER_BOUND ( 'NONE', #20, .T. ) ;
#41 = PRODUCT_DEFINITION_FORMATION_WITH_SPECIFIED_SOURCE ( 'ANY', '', #146, .NOT_KNOWN. ) ;
#42 = ORIENTED_EDGE ( 'NONE', *, *, #16, .T. ) ;
#43 = DIRECTION ( 'NONE',  ( -3.491481338843133355E-15, 1.224646799147353207E-16, -1.000000000000000000 ) ) ;
#44 = APPLICATION_PROTOCOL_DEFINITION ( 'international standard', 'config_control_design', 1994, #74 ) ;
#45 = PERSON_AND_ORGANIZATION ( #137, #116 ) ;
#46 = PRODUCT_DEFINITION ( 'UNKNOWN', '', #41, #89 ) ;
#47 = AXIS2_PLACEMENT_3D ( 'NONE', #88, #30, #134 ) ;
#48 = LOCAL_TIME ( 9, 38, 45.00000000000000000, #53 ) ;
#49 = COORDINATED_UNIVERSAL_TIME_OFFSET ( 1, 0, .AHEAD. ) ;
#50 = CARTESIAN_POINT ( 'NONE',  ( 4.189777606611760026E-14, -1.469576158976823947E-15, 12.00000000000000000 ) ) ;
#51 = CALENDAR_DATE ( 2021, 9, 11 ) ;
#52 = DIRECTION ( 'NONE',  ( 4.275831445896958607E-31, 1.000000000000000000, 1.224646799147353207E-16 ) ) ;
#53 = COORDINATED_UNIVERSAL_TIME_OFFSET ( 1, 0, .AHEAD. ) ;
#54 = FACE_OUTER_BOUND ( 'NONE', #39, .T. ) ;
#55 = DIRECTION ( 'NONE',  ( -3.491481338843133355E-15, 1.224646799147353207E-16, -1.000000000000000000 ) ) ;
#56 = CC_DESIGN_PERSON_AND_ORGANIZATION_ASSIGNMENT ( #178, #129, ( #144 ) ) ;
#57 = CYLINDRICAL_SURFACE ( 'NONE', #143, 1.999999999999999112 ) ;
#58 = CC_DESIGN_SECURITY_CLASSIFICATION ( #144, ( #41 ) ) ;
#59 = APPROVAL_ROLE ( '' ) ;
#60 = APPROVAL_STATUS ( 'not_yet_approved' ) ;
#61 = ORIENTED_EDGE ( 'NONE', *, *, #140, .F. ) ;
#62 = DATE_AND_TIME ( #164, #183 ) ;
#63 = EDGE_LOOP ( 'NONE', ( #125 ) ) ;
#64 = DIRECTION ( 'NONE',  ( 0.0000000000000000000, 1.000000000000000000, 0.0000000000000000000 ) ) ;
#65 = FACE_OUTER_BOUND ( 'NONE', #132, .T. ) ;
#66 = DIRECTION ( 'NONE',  ( -3.491481338843133355E-15, 1.224646799147353207E-16, -1.000000000000000000 ) ) ;
#67 = ADVANCED_FACE ( 'NONE', ( #40 ), #83, .F. ) ;
#68 = DATE_AND_TIME ( #160, #186 ) ;
#69 = PLANE ( 'NONE',  #33 ) ;
#70 = CARTESIAN_POINT ( 'NONE',  ( 1.069053792562853011E-31, 1.999999999999995337, 3.061891755426287241E-17 ) ) ;
#71 = CIRCLE ( 'NONE', #158, 1.600000000000001421 ) ;
#72 = VERTEX_POINT ( 'NONE', #70 ) ;
#73 = PERSON_AND_ORGANIZATION_ROLE ( 'design_owner' ) ;
#74 = APPLICATION_CONTEXT ( 'configuration controlled 3d designs of mechanical parts and assemblies' ) ;
#75 = CIRCLE ( 'NONE', #193, 1.999999999999995337 ) ;
#76 = CC_DESIGN_PERSON_AND_ORGANIZATION_ASSIGNMENT ( #159, #73, ( #146 ) ) ;
#77 = CLOSED_SHELL ( 'NONE', ( #67, #128, #195 ) ) ;
#78 = ORIENTED_EDGE ( 'NONE', *, *, #140, .T. ) ;
#79 = PERSON_AND_ORGANIZATION ( #137, #116 ) ;
#80 = ORIENTED_EDGE ( 'NONE', *, *, #191, .T. ) ;
#81 = ORIENTED_EDGE ( 'NONE', *, *, #16, .F. ) ;
#82 = PERSON_AND_ORGANIZATION ( #137, #116 ) ;
#83 = PLANE ( 'NONE',  #131 ) ;
#84 = PERSON_AND_ORGANIZATION_ROLE ( 'creator' ) ;
#85 = FACE_OUTER_BOUND ( 'NONE', #63, .T. ) ;
#86 = DIRECTION ( 'NONE',  ( -3.491481338843133355E-15, 1.224646799147353207E-16, -1.000000000000000000 ) ) ;
#87 = VERTEX_POINT ( 'NONE', #157 ) ;
#88 = CARTESIAN_POINT ( 'NONE',  ( 0.0000000000000000000, 0.0000000000000000000, 0.0000000000000000000 ) ) ;
#89 = DESIGN_CONTEXT ( 'detailed design', #142, 'design' ) ;
#90 = DIRECTION ( 'NONE',  ( -4.275831445896958607E-31, -1.000000000000000000, -1.224646799147353207E-16 ) ) ;
#91 = CONICAL_SURFACE ( 'NONE', #203, 1.600000000000001421, 0.7853981633974512766 ) ;
#92 = APPROVAL_PERSON_ORGANIZATION ( #100, #8, #59 ) ;
#93 = APPROVAL_DATE_TIME ( #110, #188 ) ;
#94 = DIRECTION ( 'NONE',  ( -4.275831445896958607E-31, -1.000000000000000000, -1.224646799147353207E-16 ) ) ;
#95 = FACE_OUTER_BOUND ( 'NONE', #194, .T. ) ;
#96 = CARTESIAN_POINT ( 'NONE',  ( 0.0000000000000000000, 0.0000000000000000000, 0.0000000000000000000 ) ) ;
#97 = ORIENTED_EDGE ( 'NONE', *, *, #190, .F. ) ;
#98 = CIRCLE ( 'NONE', #177, 1.999999999999996669 ) ;
#99 = FACE_BOUND ( 'NONE', #2, .T. ) ;
#100 = PERSON_AND_ORGANIZATION ( #137, #116 ) ;
#101 = CIRCLE ( 'NONE', #17, 1.999999999999996669 ) ;
#102 = APPROVAL_DATE_TIME ( #68, #8 ) ;
#103 = ADVANCED_BREP_SHAPE_REPRESENTATION ( '57068', ( #23, #162, #47 ), #139 ) ;
#104 =( LENGTH_UNIT ( ) NAMED_UNIT ( * ) SI_UNIT ( .MILLI., .METRE. ) );
#105 = ORIENTED_EDGE ( 'NONE', *, *, #135, .T. ) ;
#106 = MECHANICAL_CONTEXT ( 'NONE', #74, 'mechanical' ) ;
#107 = DIRECTION ( 'NONE',  ( 0.0000000000000000000, 1.000000000000000000, 0.0000000000000000000 ) ) ;
#108 = AXIS2_PLACEMENT_3D ( 'NONE', #96, #109, #166 ) ;
#109 = DIRECTION ( 'NONE',  ( -3.491481338843133355E-15, 1.224646799147353207E-16, -1.000000000000000000 ) ) ;
#110 = DATE_AND_TIME ( #51, #122 ) ;
#111 = EDGE_LOOP ( 'NONE', ( #61 ) ) ;
#112 = FACE_OUTER_BOUND ( 'NONE', #111, .T. ) ;
#113 = COORDINATED_UNIVERSAL_TIME_OFFSET ( 1, 0, .AHEAD. ) ;
#114 = AXIS2_PLACEMENT_3D ( 'NONE', #127, #156, #9 ) ;
#115 = DIRECTION ( 'NONE',  ( 4.275831445896958607E-31, 1.000000000000000000, 1.224646799147353207E-16 ) ) ;
#116 = ORGANIZATION ( 'UNSPECIFIED', 'UNSPECIFIED', '' ) ;
#117 = CC_DESIGN_APPROVAL ( #147, ( #41 ) ) ;
#118 = COORDINATED_UNIVERSAL_TIME_OFFSET ( 1, 0, .AHEAD. ) ;
#119 =( NAMED_UNIT ( * ) PLANE_ANGLE_UNIT ( ) SI_UNIT ( $, .RADIAN. ) );
#120 = UNCERTAINTY_MEASURE_WITH_UNIT (LENGTH_MEASURE( 1.000000000000000082E-05 ), #104, 'distance_accuracy_value', 'NONE');
#121 = CARTESIAN_POINT ( 'NONE',  ( 1.745740669421566678E-13, 1.199807826129478012E-32, 50.00000000000000000 ) ) ;
#122 = LOCAL_TIME ( 9, 38, 45.00000000000000000, #49 ) ;
#123 = CC_DESIGN_PERSON_AND_ORGANIZATION_ASSIGNMENT ( #82, #151, ( #41 ) ) ;
#124 = DATE_TIME_ROLE ( 'classification_date' ) ;
#125 = ORIENTED_EDGE ( 'NONE', *, *, #135, .F. ) ;
#126 = EDGE_LOOP ( 'NONE', ( #81 ) ) ;
#127 = CARTESIAN_POINT ( 'NONE',  ( 4.189777606611760026E-14, 1.499759782661853229E-32, 12.00000000000000000 ) ) ;
#128 = ADVANCED_FACE ( 'NONE', ( #112, #65 ), #179, .T. ) ;
#129 = PERSON_AND_ORGANIZATION_ROLE ( 'classification_officer' ) ;
#130 = CARTESIAN_POINT ( 'NONE',  ( 4.189777606611760026E-14, 1.499759782661853229E-32, 12.00000000000000000 ) ) ;
#131 = AXIS2_PLACEMENT_3D ( 'NONE', #169, #36, #94 ) ;
#132 = EDGE_LOOP ( 'NONE', ( #3 ) ) ;
#133 = CC_DESIGN_APPROVAL ( #188, ( #144 ) ) ;
#134 = DIRECTION ( 'NONE',  ( 1.000000000000000000, 0.0000000000000000000, 0.0000000000000000000 ) ) ;
#135 = EDGE_CURVE ( 'NONE', #189, #189, #19, .T. ) ;
#136 = CARTESIAN_POINT ( 'NONE',  ( 1.731774744066194397E-13, 1.999999999999995337, 49.60000000000000853 ) ) ;
#137 = PERSON ( 'UNSPECIFIED', 'UNSPECIFIED', 'UNSPECIFIED', ('UNSPECIFIED'), ('UNSPECIFIED'), ('UNSPECIFIED') ) ;
#138 = AXIS2_PLACEMENT_3D ( 'NONE', #22, #163, #152 ) ;
#139 =( GEOMETRIC_REPRESENTATION_CONTEXT ( 3 ) GLOBAL_UNCERTAINTY_ASSIGNED_CONTEXT ( ( #120 ) ) GLOBAL_UNIT_ASSIGNED_CONTEXT ( ( #104, #119, #202 ) ) REPRESENTATION_CONTEXT ( 'NONE', 'WORKASPACE' ) );
#140 = EDGE_CURVE ( 'NONE', #72, #72, #75, .T. ) ;
#141 = APPROVAL_STATUS ( 'not_yet_approved' ) ;
#142 = APPLICATION_CONTEXT ( 'configuration controlled 3d designs of mechanical parts and assemblies' ) ;
#143 = AXIS2_PLACEMENT_3D ( 'NONE', #5, #66, #115 ) ;
#144 = SECURITY_CLASSIFICATION ( '', '', #6 ) ;
#145 = APPROVAL_ROLE ( '' ) ;
#146 = PRODUCT ( '57068', '57068', '', ( #106 ) ) ;
#147 = APPROVAL ( #141, 'UNSPECIFIED' ) ;
#148 = ORIENTED_EDGE ( 'NONE', *, *, #191, .F. ) ;
#149 = CARTESIAN_POINT ( 'NONE',  ( 1.745740669421566678E-13, -6.123233995736766085E-15, 50.00000000000000000 ) ) ;
#150 = CLOSED_SHELL ( 'NONE', ( #25, #29, #4, #200 ) ) ;
#151 = PERSON_AND_ORGANIZATION_ROLE ( 'design_supplier' ) ;
#152 = DIRECTION ( 'NONE',  ( 0.0000000000000000000, 1.000000000000000000, 0.0000000000000000000 ) ) ;
#153 = APPROVAL_ROLE ( '' ) ;
#154 = DIRECTION ( 'NONE',  ( -3.491481338843133355E-15, 1.224646799147353207E-16, -1.000000000000000000 ) ) ;
#155 = PRODUCT_RELATED_PRODUCT_CATEGORY ( 'detail', '', ( #146 ) ) ;
#156 = DIRECTION ( 'NONE',  ( 3.491481338843133355E-15, -1.224646799147353207E-16, 1.000000000000000000 ) ) ;
#157 = CARTESIAN_POINT ( 'NONE',  ( 4.189777606611760026E-14, 1.999999999999995337, 12.00000000000000000 ) ) ;
#158 = AXIS2_PLACEMENT_3D ( 'NONE', #197, #55, #182 ) ;
#159 = PERSON_AND_ORGANIZATION ( #137, #116 ) ;
#160 = CALENDAR_DATE ( 2021, 9, 11 ) ;
#161 = APPROVAL_STATUS ( 'not_yet_approved' ) ;
#162 = MANIFOLD_SOLID_BREP ( 'Corps-Déplacer/Copier1[2]', #77 ) ;
#163 = DIRECTION ( 'NONE',  ( -3.491481338843133355E-15, 1.224646799147353207E-16, -1.000000000000000000 ) ) ;
#164 = CALENDAR_DATE ( 2021, 9, 11 ) ;
#165 = PLANE ( 'NONE',  #167 ) ;
#166 = DIRECTION ( 'NONE',  ( 4.275831445896958607E-31, 1.000000000000000000, 1.224646799147352961E-16 ) ) ;
#167 = AXIS2_PLACEMENT_3D ( 'NONE', #130, #11, #90 ) ;
#168 = DIRECTION ( 'NONE',  ( -3.491481338843133355E-15, 1.224646799147353207E-16, -1.000000000000000000 ) ) ;
#169 = CARTESIAN_POINT ( 'NONE',  ( -3.741304549615522139E-31, 1.312272985780930357E-32, -1.071552211376035887E-16 ) ) ;
#170 = DATE_AND_TIME ( #171, #27 ) ;
#171 = CALENDAR_DATE ( 2021, 9, 11 ) ;
#172 = DATE_TIME_ROLE ( 'creation_date' ) ;
#173 = PERSON_AND_ORGANIZATION_ROLE ( 'creator' ) ;
#174 = PRODUCT_DEFINITION_SHAPE ( 'NONE', 'NONE',  #46 ) ;
#175 = EDGE_LOOP ( 'NONE', ( #148 ) ) ;
#176 = EDGE_LOOP ( 'NONE', ( #42 ) ) ;
#177 = AXIS2_PLACEMENT_3D ( 'NONE', #50, #86, #107 ) ;
#178 = PERSON_AND_ORGANIZATION ( #137, #116 ) ;
#179 = CYLINDRICAL_SURFACE ( 'NONE', #108, 1.999999999999995781 ) ;
#180 = FACE_OUTER_BOUND ( 'NONE', #126, .T. ) ;
#181 = CALENDAR_DATE ( 2021, 9, 11 ) ;
#182 = DIRECTION ( 'NONE',  ( 0.0000000000000000000, 1.000000000000000000, 0.0000000000000000000 ) ) ;
#183 = LOCAL_TIME ( 9, 38, 45.00000000000000000, #113 ) ;
#184 = DIRECTION ( 'NONE',  ( 4.275831445896958607E-31, 1.000000000000000000, 1.224646799147353207E-16 ) ) ;
#185 = CC_DESIGN_DATE_AND_TIME_ASSIGNMENT ( #170, #172, ( #46 ) ) ;
#186 = LOCAL_TIME ( 9, 38, 45.00000000000000000, #118 ) ;
#187 = FACE_OUTER_BOUND ( 'NONE', #175, .T. ) ;
#188 = APPROVAL ( #60, 'UNSPECIFIED' ) ;
#189 = VERTEX_POINT ( 'NONE', #136 ) ;
#190 = EDGE_CURVE ( 'NONE', #15, #15, #101, .T. ) ;
#191 = EDGE_CURVE ( 'NONE', #10, #10, #71, .T. ) ;
#192 = CARTESIAN_POINT ( 'NONE',  ( -7.482609099231044278E-31, 2.624545971561860713E-32, -2.143104422752071774E-16 ) ) ;
#193 = AXIS2_PLACEMENT_3D ( 'NONE', #192, #168, #52 ) ;
#194 = EDGE_LOOP ( 'NONE', ( #97 ) ) ;
#195 = ADVANCED_FACE ( 'NONE', ( #95 ), #165, .T. ) ;
#196 = DATE_AND_TIME ( #181, #48 ) ;
#197 = CARTESIAN_POINT ( 'NONE',  ( 1.745740669421566678E-13, -6.123233995736766085E-15, 50.00000000000000000 ) ) ;
#198 = APPROVAL_DATE_TIME ( #62, #147 ) ;
#199 = FACE_OUTER_BOUND ( 'NONE', #176, .T. ) ;
#200 = ADVANCED_FACE ( 'NONE', ( #187 ), #69, .F. ) ;
#201 = APPLICATION_PROTOCOL_DEFINITION ( 'international standard', 'config_control_design', 1994, #142 ) ;
#202 =( NAMED_UNIT ( * ) SI_UNIT ( $, .STERADIAN. ) SOLID_ANGLE_UNIT ( ) );
#203 = AXIS2_PLACEMENT_3D ( 'NONE', #149, #154, #7 ) ;
ENDSEC;
END-ISO-10303-21;
