ISO-10303-21;
HEADER;
FILE_DESCRIPTION (( 'STEP AP203' ),
    '1' );
FILE_NAME ('57067.step',
    '2021-11-09T08:38:45',
    ( '' ),
    ( '' ),
    'SwSTEP 2.0',
    'SolidWorks 2019',
    '' );
FILE_SCHEMA (( 'CONFIG_CONTROL_DESIGN' ));
ENDSEC;

DATA;
#1 = APPROVAL_STATUS ( 'not_yet_approved' ) ;
#2 = ADVANCED_FACE ( 'NONE', ( #193, #166 ), #58, .T. ) ;
#3 = CIRCLE ( 'NONE', #181, 1.750000000000000000 ) ;
#4 = APPROVAL_ROLE ( '' ) ;
#5 = DIRECTION ( 'NONE',  ( -3.491481338843133355E-15, 1.224646799147353207E-16, -1.000000000000000000 ) ) ;
#6 = CARTESIAN_POINT ( 'NONE',  ( 0.0000000000000000000, 0.0000000000000000000, 0.0000000000000000000 ) ) ;
#7 = ORIENTED_EDGE ( 'NONE', *, *, #29, .T. ) ;
#8 = APPROVAL ( #52, 'UNSPECIFIED' ) ;
#9 = PERSON_AND_ORGANIZATION ( #101, #165 ) ;
#10 = DIRECTION ( 'NONE',  ( 4.275831445896958607E-31, 1.000000000000000000, 1.224646799147353207E-16 ) ) ;
#11 = ORIENTED_EDGE ( 'NONE', *, *, #190, .F. ) ;
#12 = CC_DESIGN_PERSON_AND_ORGANIZATION_ASSIGNMENT ( #9, #71, ( #97 ) ) ;
#13 = DIRECTION ( 'NONE',  ( -4.275831445896958607E-31, -1.000000000000000000, -1.224646799147353207E-16 ) ) ;
#14 = PLANE ( 'NONE',  #65 ) ;
#15 = ADVANCED_FACE ( 'NONE', ( #74 ), #28, .F. ) ;
#16 = PLANE ( 'NONE',  #118 ) ;
#17 = CC_DESIGN_APPROVAL ( #84, ( #185 ) ) ;
#18 = APPROVAL ( #1, 'UNSPECIFIED' ) ;
#19 = DIRECTION ( 'NONE',  ( -3.491481338843133355E-15, 1.224646799147353207E-16, -1.000000000000000000 ) ) ;
#20 = SECURITY_CLASSIFICATION ( '', '', #172 ) ;
#21 = CC_DESIGN_SECURITY_CLASSIFICATION ( #20, ( #97 ) ) ;
#22 = CARTESIAN_POINT ( 'NONE',  ( 1.326762908760390423E-13, -4.653657836759941941E-15, 38.00000000000000000 ) ) ;
#23 = APPLICATION_PROTOCOL_DEFINITION ( 'international standard', 'config_control_design', 1994, #99 ) ;
#24 = CC_DESIGN_PERSON_AND_ORGANIZATION_ASSIGNMENT ( #154, #174, ( #198 ) ) ;
#25 = EDGE_LOOP ( 'NONE', ( #109 ) ) ;
#26 = COORDINATED_UNIVERSAL_TIME_OFFSET ( 1, 0, .AHEAD. ) ;
#27 = DIRECTION ( 'NONE',  ( -3.491481338843133355E-15, 1.224646799147353207E-16, -1.000000000000000000 ) ) ;
#28 = PLANE ( 'NONE',  #85 ) ;
#29 = EDGE_CURVE ( 'NONE', #129, #129, #68, .T. ) ;
#30 = DIRECTION ( 'NONE',  ( 4.275831445896958607E-31, 1.000000000000000000, 1.224646799147353207E-16 ) ) ;
#31 = CARTESIAN_POINT ( 'NONE',  ( 1.312796983405018142E-13, 1.749999999999995559, 37.60000000000000142 ) ) ;
#32 = FACE_BOUND ( 'NONE', #196, .T. ) ;
#33 = ADVANCED_FACE ( 'NONE', ( #34, #32 ), #132, .T. ) ;
#34 = FACE_OUTER_BOUND ( 'NONE', #127, .T. ) ;
#35 = PRODUCT_DEFINITION_SHAPE ( 'NONE', 'NONE',  #185 ) ;
#36 = ADVANCED_BREP_SHAPE_REPRESENTATION ( '57067', ( #156, #93, #108 ), #70 ) ;
#37 = CARTESIAN_POINT ( 'NONE',  ( 4.189777606611760026E-14, 1.312289809829121028E-32, 12.00000000000000000 ) ) ;
#38 = PERSON_AND_ORGANIZATION ( #101, #165 ) ;
#39 = DIRECTION ( 'NONE',  ( 0.0000000000000000000, 0.0000000000000000000, 1.000000000000000000 ) ) ;
#40 = COORDINATED_UNIVERSAL_TIME_OFFSET ( 1, 0, .AHEAD. ) ;
#41 = DATE_AND_TIME ( #151, #83 ) ;
#42 = EDGE_LOOP ( 'NONE', ( #11 ) ) ;
#43 = ORIENTED_EDGE ( 'NONE', *, *, #190, .T. ) ;
#44 = LOCAL_TIME ( 9, 38, 45.00000000000000000, #138 ) ;
#45 = DIRECTION ( 'NONE',  ( -4.275831445896958607E-31, -1.000000000000000000, -1.224646799147353207E-16 ) ) ;
#46 = PLANE ( 'NONE',  #53 ) ;
#47 = CC_DESIGN_DATE_AND_TIME_ASSIGNMENT ( #149, #121, ( #185 ) ) ;
#48 = LOCAL_TIME ( 9, 38, 45.00000000000000000, #40 ) ;
#49 = FACE_OUTER_BOUND ( 'NONE', #124, .T. ) ;
#50 = CARTESIAN_POINT ( 'NONE',  ( 4.189777606611760026E-14, -1.469576158976823947E-15, 12.00000000000000000 ) ) ;
#51 = DATE_TIME_ROLE ( 'classification_date' ) ;
#52 = APPROVAL_STATUS ( 'not_yet_approved' ) ;
#53 = AXIS2_PLACEMENT_3D ( 'NONE', #201, #19, #110 ) ;
#54 = DATE_AND_TIME ( #133, #48 ) ;
#55 = CC_DESIGN_DATE_AND_TIME_ASSIGNMENT ( #88, #51, ( #20 ) ) ;
#56 = PERSON_AND_ORGANIZATION ( #101, #165 ) ;
#57 = AXIS2_PLACEMENT_3D ( 'NONE', #161, #61, #159 ) ;
#58 = CYLINDRICAL_SURFACE ( 'NONE', #64, 1.749999999999996447 ) ;
#59 = ORIENTED_EDGE ( 'NONE', *, *, #148, .F. ) ;
#60 = CARTESIAN_POINT ( 'NONE',  ( 4.189777606611760026E-14, -1.469576158976823947E-15, 12.00000000000000000 ) ) ;
#61 = DIRECTION ( 'NONE',  ( -3.491481338843133355E-15, 1.224646799147353207E-16, -1.000000000000000000 ) ) ;
#62 = AXIS2_PLACEMENT_3D ( 'NONE', #22, #5, #169 ) ;
#63 = DIRECTION ( 'NONE',  ( -3.491481338843133355E-15, 1.224646799147353207E-16, -1.000000000000000000 ) ) ;
#64 = AXIS2_PLACEMENT_3D ( 'NONE', #164, #27, #10 ) ;
#65 = AXIS2_PLACEMENT_3D ( 'NONE', #37, #82, #147 ) ;
#66 = DIRECTION ( 'NONE',  ( -3.491481338843133355E-15, 1.224646799147353207E-16, -1.000000000000000000 ) ) ;
#67 = SHAPE_DEFINITION_REPRESENTATION ( #35, #36 ) ;
#68 = CIRCLE ( 'NONE', #62, 1.350000000000000089 ) ;
#69 = APPROVAL_ROLE ( '' ) ;
#70 =( GEOMETRIC_REPRESENTATION_CONTEXT ( 3 ) GLOBAL_UNCERTAINTY_ASSIGNED_CONTEXT ( ( #94 ) ) GLOBAL_UNIT_ASSIGNED_CONTEXT ( ( #188, #96, #80 ) ) REPRESENTATION_CONTEXT ( 'NONE', 'WORKASPACE' ) );
#71 = PERSON_AND_ORGANIZATION_ROLE ( 'design_supplier' ) ;
#72 = PERSON_AND_ORGANIZATION ( #101, #165 ) ;
#73 = APPROVAL_PERSON_ORGANIZATION ( #56, #8, #4 ) ;
#74 = FACE_OUTER_BOUND ( 'NONE', #25, .T. ) ;
#75 = CC_DESIGN_PERSON_AND_ORGANIZATION_ASSIGNMENT ( #153, #92, ( #185 ) ) ;
#76 = EDGE_LOOP ( 'NONE', ( #95 ) ) ;
#77 = CARTESIAN_POINT ( 'NONE',  ( -3.206825618878402970E-31, 1.124803012948198429E-32, -9.184713614826169517E-17 ) ) ;
#78 = CARTESIAN_POINT ( 'NONE',  ( 1.312796983405018142E-13, -4.604671964794047724E-15, 37.60000000000000142 ) ) ;
#79 = CC_DESIGN_APPROVAL ( #8, ( #97 ) ) ;
#80 =( NAMED_UNIT ( * ) SI_UNIT ( $, .STERADIAN. ) SOLID_ANGLE_UNIT ( ) );
#81 = APPLICATION_PROTOCOL_DEFINITION ( 'international standard', 'config_control_design', 1994, #176 ) ;
#82 = DIRECTION ( 'NONE',  ( 3.491481338843133355E-15, -1.224646799147353207E-16, 1.000000000000000000 ) ) ;
#83 = LOCAL_TIME ( 9, 38, 45.00000000000000000, #191 ) ;
#84 = APPROVAL ( #90, 'UNSPECIFIED' ) ;
#85 = AXIS2_PLACEMENT_3D ( 'NONE', #77, #178, #45 ) ;
#86 = DIRECTION ( 'NONE',  ( 3.491481338843133355E-15, -1.224646799147353207E-16, 1.000000000000000000 ) ) ;
#87 = CALENDAR_DATE ( 2021, 9, 11 ) ;
#88 = DATE_AND_TIME ( #150, #44 ) ;
#89 = AXIS2_PLACEMENT_3D ( 'NONE', #202, #66, #111 ) ;
#90 = APPROVAL_STATUS ( 'not_yet_approved' ) ;
#91 = EDGE_LOOP ( 'NONE', ( #43 ) ) ;
#92 = PERSON_AND_ORGANIZATION_ROLE ( 'creator' ) ;
#93 = MANIFOLD_SOLID_BREP ( 'Corps-Déplacer/Copier1[2]', #117 ) ;
#94 = UNCERTAINTY_MEASURE_WITH_UNIT (LENGTH_MEASURE( 1.000000000000000082E-05 ), #188, 'distance_accuracy_value', 'NONE');
#95 = ORIENTED_EDGE ( 'NONE', *, *, #183, .F. ) ;
#96 =( NAMED_UNIT ( * ) PLANE_ANGLE_UNIT ( ) SI_UNIT ( $, .RADIAN. ) );
#97 = PRODUCT_DEFINITION_FORMATION_WITH_SPECIFIED_SOURCE ( 'ANY', '', #198, .NOT_KNOWN. ) ;
#98 = CC_DESIGN_APPROVAL ( #18, ( #20 ) ) ;
#99 = APPLICATION_CONTEXT ( 'configuration controlled 3d designs of mechanical parts and assemblies' ) ;
#100 = FACE_OUTER_BOUND ( 'NONE', #106, .T. ) ;
#101 = PERSON ( 'UNSPECIFIED', 'UNSPECIFIED', 'UNSPECIFIED', ('UNSPECIFIED'), ('UNSPECIFIED'), ('UNSPECIFIED') ) ;
#102 = CARTESIAN_POINT ( 'NONE',  ( 4.189777606611760026E-14, 1.749999999999995559, 12.00000000000000000 ) ) ;
#103 = AXIS2_PLACEMENT_3D ( 'NONE', #50, #128, #143 ) ;
#104 = PERSON_AND_ORGANIZATION_ROLE ( 'classification_officer' ) ;
#105 = MECHANICAL_CONTEXT ( 'NONE', #176, 'mechanical' ) ;
#106 = EDGE_LOOP ( 'NONE', ( #125 ) ) ;
#107 = ORIENTED_EDGE ( 'NONE', *, *, #148, .T. ) ;
#108 = AXIS2_PLACEMENT_3D ( 'NONE', #6, #39, #162 ) ;
#109 = ORIENTED_EDGE ( 'NONE', *, *, #183, .T. ) ;
#110 = DIRECTION ( 'NONE',  ( 4.275831445896958607E-31, 1.000000000000000000, 1.224646799147353207E-16 ) ) ;
#111 = DIRECTION ( 'NONE',  ( 4.275831445896958607E-31, 1.000000000000000000, 1.224646799147353207E-16 ) ) ;
#112 = CARTESIAN_POINT ( 'NONE',  ( 1.069053792562852354E-31, 1.749999999999995559, 3.061891755426287241E-17 ) ) ;
#113 = CIRCLE ( 'NONE', #122, 1.749999999999996891 ) ;
#114 = DIRECTION ( 'NONE',  ( 0.0000000000000000000, 1.000000000000000000, 0.0000000000000000000 ) ) ;
#115 = VERTEX_POINT ( 'NONE', #31 ) ;
#116 = APPROVAL_ROLE ( '' ) ;
#117 = CLOSED_SHELL ( 'NONE', ( #15, #2, #135 ) ) ;
#118 = AXIS2_PLACEMENT_3D ( 'NONE', #186, #86, #13 ) ;
#119 = DATE_AND_TIME ( #123, #194 ) ;
#120 = APPROVAL_DATE_TIME ( #119, #8 ) ;
#121 = DATE_TIME_ROLE ( 'creation_date' ) ;
#122 = AXIS2_PLACEMENT_3D ( 'NONE', #60, #131, #114 ) ;
#123 = CALENDAR_DATE ( 2021, 9, 11 ) ;
#124 = EDGE_LOOP ( 'NONE', ( #152 ) ) ;
#125 = ORIENTED_EDGE ( 'NONE', *, *, #175, .F. ) ;
#126 = APPROVAL_PERSON_ORGANIZATION ( #136, #84, #69 ) ;
#127 = EDGE_LOOP ( 'NONE', ( #59 ) ) ;
#128 = DIRECTION ( 'NONE',  ( -3.491481338843133355E-15, 1.224646799147353207E-16, -1.000000000000000000 ) ) ;
#129 = VERTEX_POINT ( 'NONE', #167 ) ;
#130 = CC_DESIGN_PERSON_AND_ORGANIZATION_ASSIGNMENT ( #72, #104, ( #20 ) ) ;
#131 = DIRECTION ( 'NONE',  ( -3.491481338843133355E-15, 1.224646799147353207E-16, -1.000000000000000000 ) ) ;
#132 = CONICAL_SURFACE ( 'NONE', #57, 1.350000000000000089, 0.7853981633974512766 ) ;
#133 = CALENDAR_DATE ( 2021, 9, 11 ) ;
#134 = PERSON_AND_ORGANIZATION ( #101, #165 ) ;
#135 = ADVANCED_FACE ( 'NONE', ( #100 ), #16, .T. ) ;
#136 = PERSON_AND_ORGANIZATION ( #101, #165 ) ;
#137 = APPROVAL_PERSON_ORGANIZATION ( #134, #18, #116 ) ;
#138 = COORDINATED_UNIVERSAL_TIME_OFFSET ( 1, 0, .AHEAD. ) ;
#139 = DESIGN_CONTEXT ( 'detailed design', #99, 'design' ) ;
#140 = ADVANCED_FACE ( 'NONE', ( #157 ), #14, .F. ) ;
#141 = DIRECTION ( 'NONE',  ( -3.491481338843133355E-15, 1.224646799147353207E-16, -1.000000000000000000 ) ) ;
#142 = DIRECTION ( 'NONE',  ( 0.0000000000000000000, 1.000000000000000000, 0.0000000000000000000 ) ) ;
#143 = DIRECTION ( 'NONE',  ( 0.0000000000000000000, 1.000000000000000000, 0.0000000000000000000 ) ) ;
#144 = FACE_OUTER_BOUND ( 'NONE', #42, .T. ) ;
#145 = ADVANCED_FACE ( 'NONE', ( #49 ), #46, .F. ) ;
#146 = AXIS2_PLACEMENT_3D ( 'NONE', #199, #63, #30 ) ;
#147 = DIRECTION ( 'NONE',  ( -4.275831445896958607E-31, -1.000000000000000000, -1.224646799147353207E-16 ) ) ;
#148 = EDGE_CURVE ( 'NONE', #115, #115, #3, .T. ) ;
#149 = DATE_AND_TIME ( #87, #189 ) ;
#150 = CALENDAR_DATE ( 2021, 9, 11 ) ;
#151 = CALENDAR_DATE ( 2021, 9, 11 ) ;
#152 = ORIENTED_EDGE ( 'NONE', *, *, #29, .F. ) ;
#153 = PERSON_AND_ORGANIZATION ( #101, #165 ) ;
#154 = PERSON_AND_ORGANIZATION ( #101, #165 ) ;
#155 = ORIENTED_EDGE ( 'NONE', *, *, #175, .T. ) ;
#156 = MANIFOLD_SOLID_BREP ( 'Corps-Déplacer/Copier1[1]', #160 ) ;
#157 = FACE_OUTER_BOUND ( 'NONE', #91, .T. ) ;
#158 = CARTESIAN_POINT ( 'NONE',  ( 4.189777606611760026E-14, 1.749999999999995559, 12.00000000000000000 ) ) ;
#159 = DIRECTION ( 'NONE',  ( 0.0000000000000000000, 1.000000000000000000, 0.0000000000000000000 ) ) ;
#160 = CLOSED_SHELL ( 'NONE', ( #140, #195, #33, #145 ) ) ;
#161 = CARTESIAN_POINT ( 'NONE',  ( 1.326762908760390423E-13, -4.653657836759941941E-15, 38.00000000000000000 ) ) ;
#162 = DIRECTION ( 'NONE',  ( 1.000000000000000000, 0.0000000000000000000, 0.0000000000000000000 ) ) ;
#163 = APPROVAL_DATE_TIME ( #41, #84 ) ;
#164 = CARTESIAN_POINT ( 'NONE',  ( 0.0000000000000000000, 0.0000000000000000000, 0.0000000000000000000 ) ) ;
#165 = ORGANIZATION ( 'UNSPECIFIED', 'UNSPECIFIED', '' ) ;
#166 = FACE_OUTER_BOUND ( 'NONE', #197, .T. ) ;
#167 = CARTESIAN_POINT ( 'NONE',  ( 1.326762908760390423E-13, 1.349999999999995426, 38.00000000000000000 ) ) ;
#168 = VERTEX_POINT ( 'NONE', #102 ) ;
#169 = DIRECTION ( 'NONE',  ( 0.0000000000000000000, 1.000000000000000000, 0.0000000000000000000 ) ) ;
#170 = VERTEX_POINT ( 'NONE', #158 ) ;
#171 = APPROVAL_DATE_TIME ( #54, #18 ) ;
#172 = SECURITY_CLASSIFICATION_LEVEL ( 'unclassified' ) ;
#173 = PERSON_AND_ORGANIZATION_ROLE ( 'creator' ) ;
#174 = PERSON_AND_ORGANIZATION_ROLE ( 'design_owner' ) ;
#175 = EDGE_CURVE ( 'NONE', #170, #170, #113, .T. ) ;
#176 = APPLICATION_CONTEXT ( 'configuration controlled 3d designs of mechanical parts and assemblies' ) ;
#177 = EDGE_LOOP ( 'NONE', ( #107 ) ) ;
#178 = DIRECTION ( 'NONE',  ( 3.491481338843133355E-15, -1.224646799147353207E-16, 1.000000000000000000 ) ) ;
#179 = FACE_OUTER_BOUND ( 'NONE', #177, .T. ) ;
#180 = PRODUCT_RELATED_PRODUCT_CATEGORY ( 'detail', '', ( #198 ) ) ;
#181 = AXIS2_PLACEMENT_3D ( 'NONE', #78, #141, #142 ) ;
#182 = CYLINDRICAL_SURFACE ( 'NONE', #89, 1.749999999999998446 ) ;
#183 = EDGE_CURVE ( 'NONE', #200, #200, #203, .T. ) ;
#184 = CIRCLE ( 'NONE', #103, 1.749999999999996891 ) ;
#185 = PRODUCT_DEFINITION ( 'UNKNOWN', '', #97, #139 ) ;
#186 = CARTESIAN_POINT ( 'NONE',  ( 4.189777606611760026E-14, 1.312289809829121028E-32, 12.00000000000000000 ) ) ;
#187 = CC_DESIGN_PERSON_AND_ORGANIZATION_ASSIGNMENT ( #38, #173, ( #97 ) ) ;
#188 =( LENGTH_UNIT ( ) NAMED_UNIT ( * ) SI_UNIT ( .MILLI., .METRE. ) );
#189 = LOCAL_TIME ( 9, 38, 45.00000000000000000, #192 ) ;
#190 = EDGE_CURVE ( 'NONE', #168, #168, #184, .T. ) ;
#191 = COORDINATED_UNIVERSAL_TIME_OFFSET ( 1, 0, .AHEAD. ) ;
#192 = COORDINATED_UNIVERSAL_TIME_OFFSET ( 1, 0, .AHEAD. ) ;
#193 = FACE_OUTER_BOUND ( 'NONE', #76, .T. ) ;
#194 = LOCAL_TIME ( 9, 38, 45.00000000000000000, #26 ) ;
#195 = ADVANCED_FACE ( 'NONE', ( #144, #179 ), #182, .T. ) ;
#196 = EDGE_LOOP ( 'NONE', ( #7 ) ) ;
#197 = EDGE_LOOP ( 'NONE', ( #155 ) ) ;
#198 = PRODUCT ( '57067', '57067', '', ( #105 ) ) ;
#199 = CARTESIAN_POINT ( 'NONE',  ( -6.413651237756805940E-31, 2.249606025896396859E-32, -1.836942722965233903E-16 ) ) ;
#200 = VERTEX_POINT ( 'NONE', #112 ) ;
#201 = CARTESIAN_POINT ( 'NONE',  ( 1.326762908760390423E-13, 1.012337853296747180E-32, 38.00000000000000000 ) ) ;
#202 = CARTESIAN_POINT ( 'NONE',  ( 0.0000000000000000000, 0.0000000000000000000, 0.0000000000000000000 ) ) ;
#203 = CIRCLE ( 'NONE', #146, 1.749999999999995559 ) ;
ENDSEC;
END-ISO-10303-21;
