ISO-10303-21;
HEADER;
FILE_DESCRIPTION (( 'STEP AP203' ),
    '1' );
FILE_NAME ('57066.step',
    '2021-11-09T08:38:45',
    ( '' ),
    ( '' ),
    'SwSTEP 2.0',
    'SolidWorks 2019',
    '' );
FILE_SCHEMA (( 'CONFIG_CONTROL_DESIGN' ));
ENDSEC;

DATA;
#1 = VERTEX_POINT ( 'NONE', #162 ) ;
#2 = EDGE_CURVE ( 'NONE', #78, #78, #196, .T. ) ;
#3 = PLANE ( 'NONE',  #185 ) ;
#4 = VERTEX_POINT ( 'NONE', #69 ) ;
#5 = DESIGN_CONTEXT ( 'detailed design', #140, 'design' ) ;
#6 = PERSON_AND_ORGANIZATION_ROLE ( 'classification_officer' ) ;
#7 = AXIS2_PLACEMENT_3D ( 'NONE', #57, #105, #150 ) ;
#8 = CALENDAR_DATE ( 2021, 9, 11 ) ;
#9 = ADVANCED_FACE ( 'NONE', ( #64 ), #49, .F. ) ;
#10 = CC_DESIGN_SECURITY_CLASSIFICATION ( #63, ( #12 ) ) ;
#11 = EDGE_LOOP ( 'NONE', ( #92 ) ) ;
#12 = PRODUCT_DEFINITION_FORMATION_WITH_SPECIFIED_SOURCE ( 'ANY', '', #29, .NOT_KNOWN. ) ;
#13 = EDGE_LOOP ( 'NONE', ( #73 ) ) ;
#14 = PRODUCT_RELATED_PRODUCT_CATEGORY ( 'detail', '', ( #29 ) ) ;
#15 = DIRECTION ( 'NONE',  ( 0.0000000000000000000, 1.000000000000000000, 0.0000000000000000000 ) ) ;
#16 = CARTESIAN_POINT ( 'NONE',  ( 1.326762908760390423E-13, -4.653657836759941941E-15, 38.00000000000000000 ) ) ;
#17 = FACE_BOUND ( 'NONE', #122, .T. ) ;
#18 = CARTESIAN_POINT ( 'NONE',  ( 1.316288464743861212E-13, -4.616918432785521081E-15, 37.69999999999999574 ) ) ;
#19 = LOCAL_TIME ( 9, 38, 45.00000000000000000, #183 ) ;
#20 = APPLICATION_PROTOCOL_DEFINITION ( 'international standard', 'config_control_design', 1994, #87 ) ;
#21 = EDGE_CURVE ( 'NONE', #126, #126, #25, .T. ) ;
#22 = DATE_AND_TIME ( #169, #121 ) ;
#23 = PERSON_AND_ORGANIZATION ( #66, #46 ) ;
#24 = APPROVAL_DATE_TIME ( #184, #180 ) ;
#25 = CIRCLE ( 'NONE', #190, 1.499999999999997335 ) ;
#26 = SHAPE_DEFINITION_REPRESENTATION ( #93, #134 ) ;
#27 = AXIS2_PLACEMENT_3D ( 'NONE', #18, #83, #35 ) ;
#28 = EDGE_LOOP ( 'NONE', ( #94 ) ) ;
#29 = PRODUCT ( '57066', '57066', '', ( #181 ) ) ;
#30 = DIRECTION ( 'NONE',  ( 0.0000000000000000000, 1.000000000000000000, 0.0000000000000000000 ) ) ;
#31 = DIRECTION ( 'NONE',  ( -3.491481338843133355E-15, 1.224646799147353207E-16, -1.000000000000000000 ) ) ;
#32 = CC_DESIGN_DATE_AND_TIME_ASSIGNMENT ( #22, #89, ( #194 ) ) ;
#33 = CARTESIAN_POINT ( 'NONE',  ( 0.0000000000000000000, 0.0000000000000000000, 0.0000000000000000000 ) ) ;
#34 = APPROVAL_PERSON_ORGANIZATION ( #179, #180, #41 ) ;
#35 = DIRECTION ( 'NONE',  ( 0.0000000000000000000, 1.000000000000000000, 0.0000000000000000000 ) ) ;
#36 = PLANE ( 'NONE',  #163 ) ;
#37 = DIRECTION ( 'NONE',  ( -3.491481338843133355E-15, 1.224646799147353207E-16, -1.000000000000000000 ) ) ;
#38 = AXIS2_PLACEMENT_3D ( 'NONE', #131, #174, #177 ) ;
#39 = CALENDAR_DATE ( 2021, 9, 11 ) ;
#40 = PERSON_AND_ORGANIZATION ( #66, #46 ) ;
#41 = APPROVAL_ROLE ( '' ) ;
#42 = APPROVAL_ROLE ( '' ) ;
#43 = LOCAL_TIME ( 9, 38, 45.00000000000000000, #182 ) ;
#44 = EDGE_LOOP ( 'NONE', ( #109 ) ) ;
#45 = ADVANCED_FACE ( 'NONE', ( #111 ), #161, .F. ) ;
#46 = ORGANIZATION ( 'UNSPECIFIED', 'UNSPECIFIED', '' ) ;
#47 = ORIENTED_EDGE ( 'NONE', *, *, #125, .F. ) ;
#48 = CARTESIAN_POINT ( 'NONE',  ( 3.491481338843133355E-14, -1.224646799147353256E-15, 10.00000000000000000 ) ) ;
#49 = PLANE ( 'NONE',  #168 ) ;
#50 =( NAMED_UNIT ( * ) SI_UNIT ( $, .STERADIAN. ) SOLID_ANGLE_UNIT ( ) );
#51 = DIRECTION ( 'NONE',  ( 4.275831445896958607E-31, 1.000000000000000000, 1.224646799147353454E-16 ) ) ;
#52 = CC_DESIGN_APPROVAL ( #165, ( #12 ) ) ;
#53 = DIRECTION ( 'NONE',  ( 3.491481338843133355E-15, -1.224646799147353207E-16, 1.000000000000000000 ) ) ;
#54 = DIRECTION ( 'NONE',  ( -3.491481338843133355E-15, 1.224646799147353207E-16, -1.000000000000000000 ) ) ;
#55 = PERSON_AND_ORGANIZATION_ROLE ( 'creator' ) ;
#56 = APPROVAL_PERSON_ORGANIZATION ( #117, #165, #199 ) ;
#57 = CARTESIAN_POINT ( 'NONE',  ( 0.0000000000000000000, 0.0000000000000000000, 0.0000000000000000000 ) ) ;
#58 = APPROVAL_STATUS ( 'not_yet_approved' ) ;
#59 = APPROVAL_STATUS ( 'not_yet_approved' ) ;
#60 = CIRCLE ( 'NONE', #186, 1.200000000000000844 ) ;
#61 = ADVANCED_FACE ( 'NONE', ( #67, #187 ), #81, .T. ) ;
#62 = CARTESIAN_POINT ( 'NONE',  ( 3.491481338843133355E-14, 1.124819836996389511E-32, 10.00000000000000000 ) ) ;
#63 = SECURITY_CLASSIFICATION ( '', '', #166 ) ;
#64 = FACE_OUTER_BOUND ( 'NONE', #200, .T. ) ;
#65 = DIRECTION ( 'NONE',  ( -3.491481338843133355E-15, 1.224646799147353207E-16, -1.000000000000000000 ) ) ;
#66 = PERSON ( 'UNSPECIFIED', 'UNSPECIFIED', 'UNSPECIFIED', ('UNSPECIFIED'), ('UNSPECIFIED'), ('UNSPECIFIED') ) ;
#67 = FACE_OUTER_BOUND ( 'NONE', #28, .T. ) ;
#68 = DIRECTION ( 'NONE',  ( -4.275831445896958607E-31, -1.000000000000000000, -1.224646799147353207E-16 ) ) ;
#69 = CARTESIAN_POINT ( 'NONE',  ( 1.316288464743861212E-13, 1.499999999999996225, 37.69999999999999574 ) ) ;
#70 = CC_DESIGN_APPROVAL ( #180, ( #194 ) ) ;
#71 = CALENDAR_DATE ( 2021, 9, 11 ) ;
#72 = PERSON_AND_ORGANIZATION_ROLE ( 'creator' ) ;
#73 = ORIENTED_EDGE ( 'NONE', *, *, #2, .T. ) ;
#74 = EDGE_LOOP ( 'NONE', ( #47 ) ) ;
#75 = CIRCLE ( 'NONE', #27, 1.500000000000000666 ) ;
#76 = EDGE_LOOP ( 'NONE', ( #141 ) ) ;
#77 = DIRECTION ( 'NONE',  ( 3.491481338843133355E-15, -1.224646799147353207E-16, 1.000000000000000000 ) ) ;
#78 = VERTEX_POINT ( 'NONE', #144 ) ;
#79 = EDGE_CURVE ( 'NONE', #1, #1, #173, .T. ) ;
#80 = AXIS2_PLACEMENT_3D ( 'NONE', #128, #147, #15 ) ;
#81 = CYLINDRICAL_SURFACE ( 'NONE', #88, 1.499999999999996669 ) ;
#82 = FACE_OUTER_BOUND ( 'NONE', #44, .T. ) ;
#83 = DIRECTION ( 'NONE',  ( -3.491481338843133355E-15, 1.224646799147353207E-16, -1.000000000000000000 ) ) ;
#84 = CC_DESIGN_PERSON_AND_ORGANIZATION_ASSIGNMENT ( #23, #6, ( #63 ) ) ;
#85 = UNCERTAINTY_MEASURE_WITH_UNIT (LENGTH_MEASURE( 1.000000000000000082E-05 ), #192, 'distance_accuracy_value', 'NONE');
#86 = CALENDAR_DATE ( 2021, 9, 11 ) ;
#87 = APPLICATION_CONTEXT ( 'configuration controlled 3d designs of mechanical parts and assemblies' ) ;
#88 = AXIS2_PLACEMENT_3D ( 'NONE', #33, #96, #175 ) ;
#89 = DATE_TIME_ROLE ( 'creation_date' ) ;
#90 = ADVANCED_FACE ( 'NONE', ( #82, #191 ), #178, .T. ) ;
#91 = CLOSED_SHELL ( 'NONE', ( #9, #90, #127, #45 ) ) ;
#92 = ORIENTED_EDGE ( 'NONE', *, *, #125, .T. ) ;
#93 = PRODUCT_DEFINITION_SHAPE ( 'NONE', 'NONE',  #194 ) ;
#94 = ORIENTED_EDGE ( 'NONE', *, *, #79, .F. ) ;
#95 = EDGE_CURVE ( 'NONE', #188, #188, #60, .T. ) ;
#96 = DIRECTION ( 'NONE',  ( -3.491481338843133355E-15, 1.224646799147353207E-16, -1.000000000000000000 ) ) ;
#97 = CARTESIAN_POINT ( 'NONE',  ( 1.326762908760390423E-13, 1.199999999999996181, 38.00000000000000000 ) ) ;
#98 = DIRECTION ( 'NONE',  ( 0.0000000000000000000, 1.000000000000000000, 0.0000000000000000000 ) ) ;
#99 = DIRECTION ( 'NONE',  ( -4.275831445896958607E-31, -1.000000000000000000, -1.224646799147353207E-16 ) ) ;
#100 = CARTESIAN_POINT ( 'NONE',  ( 3.491481338843133355E-14, 1.124819836996389511E-32, 10.00000000000000000 ) ) ;
#101 = CC_DESIGN_APPROVAL ( #123, ( #63 ) ) ;
#102 = CC_DESIGN_PERSON_AND_ORGANIZATION_ASSIGNMENT ( #167, #135, ( #29 ) ) ;
#103 = APPLICATION_PROTOCOL_DEFINITION ( 'international standard', 'config_control_design', 1994, #140 ) ;
#104 = PERSON_AND_ORGANIZATION ( #66, #46 ) ;
#105 = DIRECTION ( 'NONE',  ( 0.0000000000000000000, 0.0000000000000000000, 1.000000000000000000 ) ) ;
#106 = CONICAL_SURFACE ( 'NONE', #80, 1.200000000000000844, 0.7853981633974453924 ) ;
#107 = APPROVAL_DATE_TIME ( #149, #123 ) ;
#108 = AXIS2_PLACEMENT_3D ( 'NONE', #48, #172, #30 ) ;
#109 = ORIENTED_EDGE ( 'NONE', *, *, #21, .F. ) ;
#110 =( GEOMETRIC_REPRESENTATION_CONTEXT ( 3 ) GLOBAL_UNCERTAINTY_ASSIGNED_CONTEXT ( ( #85 ) ) GLOBAL_UNIT_ASSIGNED_CONTEXT ( ( #192, #203, #50 ) ) REPRESENTATION_CONTEXT ( 'NONE', 'WORKASPACE' ) );
#111 = FACE_OUTER_BOUND ( 'NONE', #124, .T. ) ;
#112 = CARTESIAN_POINT ( 'NONE',  ( -2.672346688141284677E-31, 9.373330401154666388E-33, -7.653905115891981398E-17 ) ) ;
#113 = DIRECTION ( 'NONE',  ( 0.0000000000000000000, 1.000000000000000000, 0.0000000000000000000 ) ) ;
#114 = DIRECTION ( 'NONE',  ( -4.275831445896958607E-31, -1.000000000000000000, -1.224646799147353207E-16 ) ) ;
#115 = CARTESIAN_POINT ( 'NONE',  ( -5.344693376282569354E-31, 1.874666080230933278E-32, -1.530781023178396280E-16 ) ) ;
#116 = COORDINATED_UNIVERSAL_TIME_OFFSET ( 1, 0, .AHEAD. ) ;
#117 = PERSON_AND_ORGANIZATION ( #66, #46 ) ;
#118 = PERSON_AND_ORGANIZATION_ROLE ( 'design_supplier' ) ;
#119 = CC_DESIGN_PERSON_AND_ORGANIZATION_ASSIGNMENT ( #104, #118, ( #12 ) ) ;
#120 = DIRECTION ( 'NONE',  ( 3.491481338843133355E-15, -1.224646799147353207E-16, 1.000000000000000000 ) ) ;
#121 = LOCAL_TIME ( 9, 38, 45.00000000000000000, #116 ) ;
#122 = EDGE_LOOP ( 'NONE', ( #202 ) ) ;
#123 = APPROVAL ( #59, 'UNSPECIFIED' ) ;
#124 = EDGE_LOOP ( 'NONE', ( #156 ) ) ;
#125 = EDGE_CURVE ( 'NONE', #4, #4, #75, .T. ) ;
#126 = VERTEX_POINT ( 'NONE', #146 ) ;
#127 = ADVANCED_FACE ( 'NONE', ( #133, #17 ), #106, .T. ) ;
#128 = CARTESIAN_POINT ( 'NONE',  ( 1.326762908760390423E-13, -4.653657836759941941E-15, 38.00000000000000000 ) ) ;
#129 = CC_DESIGN_PERSON_AND_ORGANIZATION_ASSIGNMENT ( #40, #72, ( #12 ) ) ;
#130 = CARTESIAN_POINT ( 'NONE',  ( 3.491481338843133355E-14, -1.224646799147353256E-15, 10.00000000000000000 ) ) ;
#131 = CARTESIAN_POINT ( 'NONE',  ( 1.326762908760390423E-13, 8.998558695971082698E-33, 38.00000000000000000 ) ) ;
#132 = LOCAL_TIME ( 9, 38, 45.00000000000000000, #197 ) ;
#133 = FACE_OUTER_BOUND ( 'NONE', #74, .T. ) ;
#134 = ADVANCED_BREP_SHAPE_REPRESENTATION ( '57066', ( #157, #160, #7 ), #110 ) ;
#135 = PERSON_AND_ORGANIZATION_ROLE ( 'design_owner' ) ;
#136 = COORDINATED_UNIVERSAL_TIME_OFFSET ( 1, 0, .AHEAD. ) ;
#137 = DATE_AND_TIME ( #71, #43 ) ;
#138 = AXIS2_PLACEMENT_3D ( 'NONE', #115, #54, #176 ) ;
#139 = ORIENTED_EDGE ( 'NONE', *, *, #21, .T. ) ;
#140 = APPLICATION_CONTEXT ( 'configuration controlled 3d designs of mechanical parts and assemblies' ) ;
#141 = ORIENTED_EDGE ( 'NONE', *, *, #79, .T. ) ;
#142 = CC_DESIGN_DATE_AND_TIME_ASSIGNMENT ( #137, #153, ( #63 ) ) ;
#143 = AXIS2_PLACEMENT_3D ( 'NONE', #189, #65, #51 ) ;
#144 = CARTESIAN_POINT ( 'NONE',  ( 3.491481338843133355E-14, 1.499999999999996225, 10.00000000000000000 ) ) ;
#145 = CC_DESIGN_PERSON_AND_ORGANIZATION_ASSIGNMENT ( #195, #55, ( #194 ) ) ;
#146 = CARTESIAN_POINT ( 'NONE',  ( 3.491481338843133355E-14, 1.499999999999996225, 10.00000000000000000 ) ) ;
#147 = DIRECTION ( 'NONE',  ( -3.491481338843133355E-15, 1.224646799147353207E-16, -1.000000000000000000 ) ) ;
#148 = FACE_OUTER_BOUND ( 'NONE', #201, .T. ) ;
#149 = DATE_AND_TIME ( #86, #19 ) ;
#150 = DIRECTION ( 'NONE',  ( 1.000000000000000000, 0.0000000000000000000, 0.0000000000000000000 ) ) ;
#151 = APPROVAL_PERSON_ORGANIZATION ( #198, #123, #42 ) ;
#152 = DATE_AND_TIME ( #8, #132 ) ;
#153 = DATE_TIME_ROLE ( 'classification_date' ) ;
#154 = ADVANCED_FACE ( 'NONE', ( #158 ), #3, .F. ) ;
#155 = ORIENTED_EDGE ( 'NONE', *, *, #2, .F. ) ;
#156 = ORIENTED_EDGE ( 'NONE', *, *, #95, .F. ) ;
#157 = MANIFOLD_SOLID_BREP ( 'Corps-Déplacer/Copier1[1]', #91 ) ;
#158 = FACE_OUTER_BOUND ( 'NONE', #76, .T. ) ;
#159 = LOCAL_TIME ( 9, 38, 45.00000000000000000, #136 ) ;
#160 = MANIFOLD_SOLID_BREP ( 'Corps-Déplacer/Copier1[2]', #171 ) ;
#161 = PLANE ( 'NONE',  #38 ) ;
#162 = CARTESIAN_POINT ( 'NONE',  ( 1.069053792562852354E-31, 1.499999999999996225, 3.061891755426287241E-17 ) ) ;
#163 = AXIS2_PLACEMENT_3D ( 'NONE', #100, #77, #99 ) ;
#164 = APPROVAL_DATE_TIME ( #152, #165 ) ;
#165 = APPROVAL ( #193, 'UNSPECIFIED' ) ;
#166 = SECURITY_CLASSIFICATION_LEVEL ( 'unclassified' ) ;
#167 = PERSON_AND_ORGANIZATION ( #66, #46 ) ;
#168 = AXIS2_PLACEMENT_3D ( 'NONE', #62, #120, #68 ) ;
#169 = CALENDAR_DATE ( 2021, 9, 11 ) ;
#170 = ADVANCED_FACE ( 'NONE', ( #148 ), #36, .T. ) ;
#171 = CLOSED_SHELL ( 'NONE', ( #154, #61, #170 ) ) ;
#172 = DIRECTION ( 'NONE',  ( -3.491481338843133355E-15, 1.224646799147353207E-16, -1.000000000000000000 ) ) ;
#173 = CIRCLE ( 'NONE', #138, 1.499999999999996225 ) ;
#174 = DIRECTION ( 'NONE',  ( -3.491481338843133355E-15, 1.224646799147353207E-16, -1.000000000000000000 ) ) ;
#175 = DIRECTION ( 'NONE',  ( 4.275831445896958607E-31, 1.000000000000000000, 1.224646799147353454E-16 ) ) ;
#176 = DIRECTION ( 'NONE',  ( 4.275831445896958607E-31, 1.000000000000000000, 1.224646799147353207E-16 ) ) ;
#177 = DIRECTION ( 'NONE',  ( 4.275831445896958607E-31, 1.000000000000000000, 1.224646799147353207E-16 ) ) ;
#178 = CYLINDRICAL_SURFACE ( 'NONE', #143, 1.499999999999999112 ) ;
#179 = PERSON_AND_ORGANIZATION ( #66, #46 ) ;
#180 = APPROVAL ( #58, 'UNSPECIFIED' ) ;
#181 = MECHANICAL_CONTEXT ( 'NONE', #87, 'mechanical' ) ;
#182 = COORDINATED_UNIVERSAL_TIME_OFFSET ( 1, 0, .AHEAD. ) ;
#183 = COORDINATED_UNIVERSAL_TIME_OFFSET ( 1, 0, .AHEAD. ) ;
#184 = DATE_AND_TIME ( #39, #159 ) ;
#185 = AXIS2_PLACEMENT_3D ( 'NONE', #112, #53, #114 ) ;
#186 = AXIS2_PLACEMENT_3D ( 'NONE', #16, #37, #113 ) ;
#187 = FACE_OUTER_BOUND ( 'NONE', #13, .T. ) ;
#188 = VERTEX_POINT ( 'NONE', #97 ) ;
#189 = CARTESIAN_POINT ( 'NONE',  ( 0.0000000000000000000, 0.0000000000000000000, 0.0000000000000000000 ) ) ;
#190 = AXIS2_PLACEMENT_3D ( 'NONE', #130, #31, #98 ) ;
#191 = FACE_OUTER_BOUND ( 'NONE', #11, .T. ) ;
#192 =( LENGTH_UNIT ( ) NAMED_UNIT ( * ) SI_UNIT ( .MILLI., .METRE. ) );
#193 = APPROVAL_STATUS ( 'not_yet_approved' ) ;
#194 = PRODUCT_DEFINITION ( 'UNKNOWN', '', #12, #5 ) ;
#195 = PERSON_AND_ORGANIZATION ( #66, #46 ) ;
#196 = CIRCLE ( 'NONE', #108, 1.499999999999997335 ) ;
#197 = COORDINATED_UNIVERSAL_TIME_OFFSET ( 1, 0, .AHEAD. ) ;
#198 = PERSON_AND_ORGANIZATION ( #66, #46 ) ;
#199 = APPROVAL_ROLE ( '' ) ;
#200 = EDGE_LOOP ( 'NONE', ( #139 ) ) ;
#201 = EDGE_LOOP ( 'NONE', ( #155 ) ) ;
#202 = ORIENTED_EDGE ( 'NONE', *, *, #95, .T. ) ;
#203 =( NAMED_UNIT ( * ) PLANE_ANGLE_UNIT ( ) SI_UNIT ( $, .RADIAN. ) );
ENDSEC;
END-ISO-10303-21;
