ISO-10303-21;
HEADER;
FILE_DESCRIPTION (( 'STEP AP203' ),
    '1' );
FILE_NAME ('57065.step',
    '2021-11-09T08:38:44',
    ( '' ),
    ( '' ),
    'SwSTEP 2.0',
    'SolidWorks 2019',
    '' );
FILE_SCHEMA (( 'CONFIG_CONTROL_DESIGN' ));
ENDSEC;

DATA;
#1 = VERTEX_POINT ( 'NONE', #184 ) ;
#2 = DESIGN_CONTEXT ( 'detailed design', #9, 'design' ) ;
#3 = PERSON_AND_ORGANIZATION_ROLE ( 'creator' ) ;
#4 = ADVANCED_FACE ( 'NONE', ( #145 ), #146, .F. ) ;
#5 = PERSON_AND_ORGANIZATION ( #95, #125 ) ;
#6 = CC_DESIGN_SECURITY_CLASSIFICATION ( #63, ( #148 ) ) ;
#7 = ORIENTED_EDGE ( 'NONE', *, *, #167, .F. ) ;
#8 = DIRECTION ( 'NONE',  ( 0.0000000000000000000, 1.000000000000000000, 0.0000000000000000000 ) ) ;
#9 = APPLICATION_CONTEXT ( 'configuration controlled 3d designs of mechanical parts and assemblies' ) ;
#10 = LOCAL_TIME ( 9, 38, 44.00000000000000000, #112 ) ;
#11 = DIRECTION ( 'NONE',  ( 0.0000000000000000000, 1.000000000000000000, 0.0000000000000000000 ) ) ;
#12 = DIRECTION ( 'NONE',  ( 3.491481338843133355E-15, -1.224646799147353207E-16, 1.000000000000000000 ) ) ;
#13 = FACE_OUTER_BOUND ( 'NONE', #56, .T. ) ;
#14 = CC_DESIGN_PERSON_AND_ORGANIZATION_ASSIGNMENT ( #163, #49, ( #193 ) ) ;
#15 = APPROVAL_DATE_TIME ( #107, #130 ) ;
#16 = CLOSED_SHELL ( 'NONE', ( #190, #59, #154, #100 ) ) ;
#17 = COORDINATED_UNIVERSAL_TIME_OFFSET ( 1, 0, .AHEAD. ) ;
#18 = CC_DESIGN_APPROVAL ( #170, ( #63 ) ) ;
#19 = CC_DESIGN_PERSON_AND_ORGANIZATION_ASSIGNMENT ( #5, #113, ( #148 ) ) ;
#20 = CALENDAR_DATE ( 2021, 9, 11 ) ;
#21 = APPROVAL_STATUS ( 'not_yet_approved' ) ;
#22 = APPROVAL_ROLE ( '' ) ;
#23 = PRODUCT_RELATED_PRODUCT_CATEGORY ( 'detail', '', ( #36 ) ) ;
#24 = ADVANCED_BREP_SHAPE_REPRESENTATION ( '57065', ( #140, #69, #32 ), #185 ) ;
#25 = CIRCLE ( 'NONE', #41, 0.9500000000000000666 ) ;
#26 = AXIS2_PLACEMENT_3D ( 'NONE', #192, #104, #85 ) ;
#27 = EDGE_LOOP ( 'NONE', ( #7 ) ) ;
#28 = DIRECTION ( 'NONE',  ( -3.491481338843133355E-15, 1.224646799147353207E-16, -1.000000000000000000 ) ) ;
#29 = EDGE_LOOP ( 'NONE', ( #54 ) ) ;
#30 = CARTESIAN_POINT ( 'NONE',  ( 1.117274028429802674E-13, -3.918869757271530263E-15, 32.00000000000000000 ) ) ;
#31 = DIRECTION ( 'NONE',  ( 4.275831445896959482E-31, 1.000000000000000000, 1.224646799147353454E-16 ) ) ;
#32 = AXIS2_PLACEMENT_3D ( 'NONE', #187, #52, #171 ) ;
#33 = APPROVAL_STATUS ( 'not_yet_approved' ) ;
#34 = EDGE_CURVE ( 'NONE', #1, #1, #61, .T. ) ;
#35 = DATE_AND_TIME ( #201, #68 ) ;
#36 = PRODUCT ( '57065', '57065', '', ( #110 ) ) ;
#37 = CARTESIAN_POINT ( 'NONE',  ( 2.793185071074506684E-14, 1.249999999999996225, 8.000000000000000000 ) ) ;
#38 = APPLICATION_PROTOCOL_DEFINITION ( 'international standard', 'config_control_design', 1994, #91 ) ;
#39 = SECURITY_CLASSIFICATION_LEVEL ( 'unclassified' ) ;
#40 = SHAPE_DEFINITION_REPRESENTATION ( #96, #24 ) ;
#41 = AXIS2_PLACEMENT_3D ( 'NONE', #45, #161, #92 ) ;
#42 = DIRECTION ( 'NONE',  ( -3.491481338843133355E-15, 1.224646799147353207E-16, -1.000000000000000000 ) ) ;
#43 = CARTESIAN_POINT ( 'NONE',  ( 2.793185071074506684E-14, -9.797174393178825657E-16, 8.000000000000000000 ) ) ;
#44 = CLOSED_SHELL ( 'NONE', ( #4, #64, #60 ) ) ;
#45 = CARTESIAN_POINT ( 'NONE',  ( 1.117274028429802674E-13, -3.918869757271530263E-15, 32.00000000000000000 ) ) ;
#46 = AXIS2_PLACEMENT_3D ( 'NONE', #77, #12, #174 ) ;
#47 = CARTESIAN_POINT ( 'NONE',  ( 1.117274028429802674E-13, 7.123858967643766162E-33, 32.00000000000000000 ) ) ;
#48 =( NAMED_UNIT ( * ) PLANE_ANGLE_UNIT ( ) SI_UNIT ( $, .RADIAN. ) );
#49 = PERSON_AND_ORGANIZATION_ROLE ( 'creator' ) ;
#50 = FACE_OUTER_BOUND ( 'NONE', #98, .T. ) ;
#51 = PERSON_AND_ORGANIZATION ( #95, #125 ) ;
#52 = DIRECTION ( 'NONE',  ( 0.0000000000000000000, 0.0000000000000000000, 1.000000000000000000 ) ) ;
#53 = COORDINATED_UNIVERSAL_TIME_OFFSET ( 1, 0, .AHEAD. ) ;
#54 = ORIENTED_EDGE ( 'NONE', *, *, #183, .T. ) ;
#55 = APPROVAL_DATE_TIME ( #189, #170 ) ;
#56 = EDGE_LOOP ( 'NONE', ( #133 ) ) ;
#57 = CARTESIAN_POINT ( 'NONE',  ( 1.106799584413273211E-13, -3.882130353297110192E-15, 31.69999999999999929 ) ) ;
#58 = PLANE ( 'NONE',  #147 ) ;
#59 = ADVANCED_FACE ( 'NONE', ( #118, #150 ), #78, .T. ) ;
#60 = ADVANCED_FACE ( 'NONE', ( #62 ), #58, .T. ) ;
#61 = CIRCLE ( 'NONE', #26, 1.249999999999996225 ) ;
#62 = FACE_OUTER_BOUND ( 'NONE', #89, .T. ) ;
#63 = SECURITY_CLASSIFICATION ( '', '', #39 ) ;
#64 = ADVANCED_FACE ( 'NONE', ( #13, #151 ), #162, .T. ) ;
#65 = EDGE_LOOP ( 'NONE', ( #128 ) ) ;
#66 = AXIS2_PLACEMENT_3D ( 'NONE', #47, #28, #93 ) ;
#67 = DIRECTION ( 'NONE',  ( 3.491481338843133355E-15, -1.224646799147353207E-16, 1.000000000000000000 ) ) ;
#68 = LOCAL_TIME ( 9, 38, 44.00000000000000000, #17 ) ;
#69 = MANIFOLD_SOLID_BREP ( 'Corps-Déplacer/Copier1[2]', #44 ) ;
#70 = VERTEX_POINT ( 'NONE', #169 ) ;
#71 = APPROVAL_STATUS ( 'not_yet_approved' ) ;
#72 = PERSON_AND_ORGANIZATION ( #95, #125 ) ;
#73 = COORDINATED_UNIVERSAL_TIME_OFFSET ( 1, 0, .AHEAD. ) ;
#74 = CARTESIAN_POINT ( 'NONE',  ( 0.0000000000000000000, 0.0000000000000000000, 0.0000000000000000000 ) ) ;
#75 = FACE_BOUND ( 'NONE', #29, .T. ) ;
#76 = EDGE_LOOP ( 'NONE', ( #114 ) ) ;
#77 = CARTESIAN_POINT ( 'NONE',  ( -2.137867757404164632E-31, 7.498630672827344379E-33, -6.123096616957789580E-17 ) ) ;
#78 = CYLINDRICAL_SURFACE ( 'NONE', #200, 1.249999999999998446 ) ;
#79 = APPLICATION_PROTOCOL_DEFINITION ( 'international standard', 'config_control_design', 1994, #9 ) ;
#80 = EDGE_CURVE ( 'NONE', #182, #182, #121, .T. ) ;
#81 = CARTESIAN_POINT ( 'NONE',  ( 2.793185071074506684E-14, 9.373498641636573101E-33, 8.000000000000000000 ) ) ;
#82 = UNCERTAINTY_MEASURE_WITH_UNIT (LENGTH_MEASURE( 1.000000000000000082E-05 ), #99, 'distance_accuracy_value', 'NONE');
#83 = LOCAL_TIME ( 9, 38, 44.00000000000000000, #152 ) ;
#84 = ORIENTED_EDGE ( 'NONE', *, *, #124, .F. ) ;
#85 = DIRECTION ( 'NONE',  ( 4.275831445896958607E-31, 1.000000000000000000, 1.224646799147352961E-16 ) ) ;
#86 = LOCAL_TIME ( 9, 38, 44.00000000000000000, #73 ) ;
#87 = DIRECTION ( 'NONE',  ( -3.491481338843133355E-15, 1.224646799147353207E-16, -1.000000000000000000 ) ) ;
#88 = CC_DESIGN_PERSON_AND_ORGANIZATION_ASSIGNMENT ( #51, #3, ( #148 ) ) ;
#89 = EDGE_LOOP ( 'NONE', ( #84 ) ) ;
#90 = CONICAL_SURFACE ( 'NONE', #203, 0.9500000000000000666, 0.7853981633974453924 ) ;
#91 = APPLICATION_CONTEXT ( 'configuration controlled 3d designs of mechanical parts and assemblies' ) ;
#92 = DIRECTION ( 'NONE',  ( 0.0000000000000000000, 1.000000000000000000, 0.0000000000000000000 ) ) ;
#93 = DIRECTION ( 'NONE',  ( 4.275831445896958607E-31, 1.000000000000000000, 1.224646799147353207E-16 ) ) ;
#94 = CALENDAR_DATE ( 2021, 9, 11 ) ;
#95 = PERSON ( 'UNSPECIFIED', 'UNSPECIFIED', 'UNSPECIFIED', ('UNSPECIFIED'), ('UNSPECIFIED'), ('UNSPECIFIED') ) ;
#96 = PRODUCT_DEFINITION_SHAPE ( 'NONE', 'NONE',  #193 ) ;
#97 = CARTESIAN_POINT ( 'NONE',  ( 2.793185071074506684E-14, 1.249999999999996225, 8.000000000000000000 ) ) ;
#98 = EDGE_LOOP ( 'NONE', ( #135 ) ) ;
#99 =( LENGTH_UNIT ( ) NAMED_UNIT ( * ) SI_UNIT ( .MILLI., .METRE. ) );
#100 = ADVANCED_FACE ( 'NONE', ( #176 ), #158, .F. ) ;
#101 = CC_DESIGN_APPROVAL ( #130, ( #193 ) ) ;
#102 = DIRECTION ( 'NONE',  ( -3.491481338843133355E-15, 1.224646799147353207E-16, -1.000000000000000000 ) ) ;
#103 = CARTESIAN_POINT ( 'NONE',  ( 2.793185071074506684E-14, 9.373498641636573101E-33, 8.000000000000000000 ) ) ;
#104 = DIRECTION ( 'NONE',  ( -3.491481338843133355E-15, 1.224646799147353207E-16, -1.000000000000000000 ) ) ;
#105 = CARTESIAN_POINT ( 'NONE',  ( 0.0000000000000000000, 0.0000000000000000000, 0.0000000000000000000 ) ) ;
#106 = EDGE_LOOP ( 'NONE', ( #195 ) ) ;
#107 = DATE_AND_TIME ( #20, #83 ) ;
#108 = DATE_TIME_ROLE ( 'creation_date' ) ;
#109 = AXIS2_PLACEMENT_3D ( 'NONE', #132, #120, #180 ) ;
#110 = MECHANICAL_CONTEXT ( 'NONE', #91, 'mechanical' ) ;
#111 = CC_DESIGN_DATE_AND_TIME_ASSIGNMENT ( #126, #143, ( #63 ) ) ;
#112 = COORDINATED_UNIVERSAL_TIME_OFFSET ( 1, 0, .AHEAD. ) ;
#113 = PERSON_AND_ORGANIZATION_ROLE ( 'design_supplier' ) ;
#114 = ORIENTED_EDGE ( 'NONE', *, *, #80, .F. ) ;
#115 = ORIENTED_EDGE ( 'NONE', *, *, #183, .F. ) ;
#116 = DIRECTION ( 'NONE',  ( 0.0000000000000000000, 1.000000000000000000, 0.0000000000000000000 ) ) ;
#117 = CC_DESIGN_PERSON_AND_ORGANIZATION_ASSIGNMENT ( #168, #202, ( #36 ) ) ;
#118 = FACE_OUTER_BOUND ( 'NONE', #27, .T. ) ;
#119 = LOCAL_TIME ( 9, 38, 44.00000000000000000, #53 ) ;
#120 = DIRECTION ( 'NONE',  ( -3.491481338843133355E-15, 1.224646799147353207E-16, -1.000000000000000000 ) ) ;
#121 = CIRCLE ( 'NONE', #164, 1.250000000000000000 ) ;
#122 = DIRECTION ( 'NONE',  ( -4.275831445896958607E-31, -1.000000000000000000, -1.224646799147353207E-16 ) ) ;
#123 = APPROVAL_ROLE ( '' ) ;
#124 = EDGE_CURVE ( 'NONE', #198, #198, #156, .T. ) ;
#125 = ORGANIZATION ( 'UNSPECIFIED', 'UNSPECIFIED', '' ) ;
#126 = DATE_AND_TIME ( #172, #119 ) ;
#127 = CALENDAR_DATE ( 2021, 9, 11 ) ;
#128 = ORIENTED_EDGE ( 'NONE', *, *, #124, .T. ) ;
#129 = DIRECTION ( 'NONE',  ( -3.491481338843133355E-15, 1.224646799147353207E-16, -1.000000000000000000 ) ) ;
#130 = APPROVAL ( #21, 'UNSPECIFIED' ) ;
#131 = AXIS2_PLACEMENT_3D ( 'NONE', #43, #87, #8 ) ;
#132 = CARTESIAN_POINT ( 'NONE',  ( 2.793185071074506684E-14, -9.797174393178825657E-16, 8.000000000000000000 ) ) ;
#133 = ORIENTED_EDGE ( 'NONE', *, *, #34, .F. ) ;
#134 = APPROVAL ( #33, 'UNSPECIFIED' ) ;
#135 = ORIENTED_EDGE ( 'NONE', *, *, #167, .T. ) ;
#136 = DATE_AND_TIME ( #94, #10 ) ;
#137 = APPROVAL_DATE_TIME ( #35, #134 ) ;
#138 = CIRCLE ( 'NONE', #109, 1.249999999999997113 ) ;
#139 = PLANE ( 'NONE',  #166 ) ;
#140 = MANIFOLD_SOLID_BREP ( 'Corps-Déplacer/Copier1[1]', #16 ) ;
#141 = PERSON_AND_ORGANIZATION_ROLE ( 'classification_officer' ) ;
#142 = APPROVAL_PERSON_ORGANIZATION ( #155, #130, #123 ) ;
#143 = DATE_TIME_ROLE ( 'classification_date' ) ;
#144 = EDGE_LOOP ( 'NONE', ( #197 ) ) ;
#145 = FACE_OUTER_BOUND ( 'NONE', #106, .T. ) ;
#146 = PLANE ( 'NONE',  #46 ) ;
#147 = AXIS2_PLACEMENT_3D ( 'NONE', #103, #191, #149 ) ;
#148 = PRODUCT_DEFINITION_FORMATION_WITH_SPECIFIED_SOURCE ( 'ANY', '', #36, .NOT_KNOWN. ) ;
#149 = DIRECTION ( 'NONE',  ( -4.275831445896958607E-31, -1.000000000000000000, -1.224646799147353207E-16 ) ) ;
#150 = FACE_OUTER_BOUND ( 'NONE', #144, .T. ) ;
#151 = FACE_OUTER_BOUND ( 'NONE', #65, .T. ) ;
#152 = COORDINATED_UNIVERSAL_TIME_OFFSET ( 1, 0, .AHEAD. ) ;
#153 = PERSON_AND_ORGANIZATION ( #95, #125 ) ;
#154 = ADVANCED_FACE ( 'NONE', ( #177, #75 ), #90, .T. ) ;
#155 = PERSON_AND_ORGANIZATION ( #95, #125 ) ;
#156 = CIRCLE ( 'NONE', #131, 1.249999999999997113 ) ;
#157 = DIRECTION ( 'NONE',  ( 4.275831445896959482E-31, 1.000000000000000000, 1.224646799147353207E-16 ) ) ;
#158 = PLANE ( 'NONE',  #66 ) ;
#159 = EDGE_LOOP ( 'NONE', ( #115 ) ) ;
#160 = AXIS2_PLACEMENT_3D ( 'NONE', #74, #42, #31 ) ;
#161 = DIRECTION ( 'NONE',  ( -3.491481338843133355E-15, 1.224646799147353207E-16, -1.000000000000000000 ) ) ;
#162 = CYLINDRICAL_SURFACE ( 'NONE', #160, 1.249999999999996669 ) ;
#163 = PERSON_AND_ORGANIZATION ( #95, #125 ) ;
#164 = AXIS2_PLACEMENT_3D ( 'NONE', #57, #181, #116 ) ;
#165 = CARTESIAN_POINT ( 'NONE',  ( 1.106799584413273211E-13, 1.249999999999996225, 31.69999999999999929 ) ) ;
#166 = AXIS2_PLACEMENT_3D ( 'NONE', #81, #67, #122 ) ;
#167 = EDGE_CURVE ( 'NONE', #186, #186, #138, .T. ) ;
#168 = PERSON_AND_ORGANIZATION ( #95, #125 ) ;
#169 = CARTESIAN_POINT ( 'NONE',  ( 1.117274028429802674E-13, 0.9499999999999961808, 32.00000000000000000 ) ) ;
#170 = APPROVAL ( #71, 'UNSPECIFIED' ) ;
#171 = DIRECTION ( 'NONE',  ( 1.000000000000000000, 0.0000000000000000000, 0.0000000000000000000 ) ) ;
#172 = CALENDAR_DATE ( 2021, 9, 11 ) ;
#173 = APPROVAL_ROLE ( '' ) ;
#174 = DIRECTION ( 'NONE',  ( -4.275831445896958607E-31, -1.000000000000000000, -1.224646799147353207E-16 ) ) ;
#175 = CC_DESIGN_APPROVAL ( #134, ( #148 ) ) ;
#176 = FACE_OUTER_BOUND ( 'NONE', #159, .T. ) ;
#177 = FACE_OUTER_BOUND ( 'NONE', #76, .T. ) ;
#178 = CC_DESIGN_DATE_AND_TIME_ASSIGNMENT ( #136, #108, ( #193 ) ) ;
#179 = CC_DESIGN_PERSON_AND_ORGANIZATION_ASSIGNMENT ( #72, #141, ( #63 ) ) ;
#180 = DIRECTION ( 'NONE',  ( 0.0000000000000000000, 1.000000000000000000, 0.0000000000000000000 ) ) ;
#181 = DIRECTION ( 'NONE',  ( -3.491481338843133355E-15, 1.224646799147353207E-16, -1.000000000000000000 ) ) ;
#182 = VERTEX_POINT ( 'NONE', #165 ) ;
#183 = EDGE_CURVE ( 'NONE', #70, #70, #25, .T. ) ;
#184 = CARTESIAN_POINT ( 'NONE',  ( 1.069053792562853011E-31, 1.249999999999996225, 3.061891755426287241E-17 ) ) ;
#185 =( GEOMETRIC_REPRESENTATION_CONTEXT ( 3 ) GLOBAL_UNCERTAINTY_ASSIGNED_CONTEXT ( ( #82 ) ) GLOBAL_UNIT_ASSIGNED_CONTEXT ( ( #99, #48, #199 ) ) REPRESENTATION_CONTEXT ( 'NONE', 'WORKASPACE' ) );
#186 = VERTEX_POINT ( 'NONE', #37 ) ;
#187 = CARTESIAN_POINT ( 'NONE',  ( 0.0000000000000000000, 0.0000000000000000000, 0.0000000000000000000 ) ) ;
#188 = PERSON_AND_ORGANIZATION ( #95, #125 ) ;
#189 = DATE_AND_TIME ( #127, #86 ) ;
#190 = ADVANCED_FACE ( 'NONE', ( #50 ), #139, .F. ) ;
#191 = DIRECTION ( 'NONE',  ( 3.491481338843133355E-15, -1.224646799147353207E-16, 1.000000000000000000 ) ) ;
#192 = CARTESIAN_POINT ( 'NONE',  ( -4.275735514808329264E-31, 1.499726134565468876E-32, -1.224619323391557916E-16 ) ) ;
#193 = PRODUCT_DEFINITION ( 'UNKNOWN', '', #148, #2 ) ;
#194 = APPROVAL_PERSON_ORGANIZATION ( #153, #134, #22 ) ;
#195 = ORIENTED_EDGE ( 'NONE', *, *, #34, .T. ) ;
#196 = APPROVAL_PERSON_ORGANIZATION ( #188, #170, #173 ) ;
#197 = ORIENTED_EDGE ( 'NONE', *, *, #80, .T. ) ;
#198 = VERTEX_POINT ( 'NONE', #97 ) ;
#199 =( NAMED_UNIT ( * ) SI_UNIT ( $, .STERADIAN. ) SOLID_ANGLE_UNIT ( ) );
#200 = AXIS2_PLACEMENT_3D ( 'NONE', #105, #102, #157 ) ;
#201 = CALENDAR_DATE ( 2021, 9, 11 ) ;
#202 = PERSON_AND_ORGANIZATION_ROLE ( 'design_owner' ) ;
#203 = AXIS2_PLACEMENT_3D ( 'NONE', #30, #129, #11 ) ;
ENDSEC;
END-ISO-10303-21;
