ISO-10303-21;
HEADER;
FILE_DESCRIPTION (( 'STEP AP203' ),
    '1' );
FILE_NAME ('57064.step',
    '2021-11-09T08:38:44',
    ( '' ),
    ( '' ),
    'SwSTEP 2.0',
    'SolidWorks 2019',
    '' );
FILE_SCHEMA (( 'CONFIG_CONTROL_DESIGN' ));
ENDSEC;

DATA;
#1 = CC_DESIGN_APPROVAL ( #181, ( #192 ) ) ;
#2 = VERTEX_POINT ( 'NONE', #92 ) ;
#3 = CC_DESIGN_PERSON_AND_ORGANIZATION_ASSIGNMENT ( #40, #136, ( #74 ) ) ;
#4 = DIRECTION ( 'NONE',  ( -3.491481338843133355E-15, 1.224646799147353207E-16, -1.000000000000000000 ) ) ;
#5 = AXIS2_PLACEMENT_3D ( 'NONE', #129, #4, #33 ) ;
#6 = DIRECTION ( 'NONE',  ( 4.275831445896958607E-31, 1.000000000000000000, 1.224646799147353207E-16 ) ) ;
#7 = CIRCLE ( 'NONE', #175, 0.9999999999999924505 ) ;
#8 = DESIGN_CONTEXT ( 'detailed design', #120, 'design' ) ;
#9 = VERTEX_POINT ( 'NONE', #143 ) ;
#10 = CC_DESIGN_DATE_AND_TIME_ASSIGNMENT ( #137, #197, ( #50 ) ) ;
#11 = SECURITY_CLASSIFICATION_LEVEL ( 'unclassified' ) ;
#12 = APPROVAL_STATUS ( 'not_yet_approved' ) ;
#13 = EDGE_CURVE ( 'NONE', #37, #37, #7, .T. ) ;
#14 = APPROVAL_STATUS ( 'not_yet_approved' ) ;
#15 = COORDINATED_UNIVERSAL_TIME_OFFSET ( 1, 0, .AHEAD. ) ;
#16 = LOCAL_TIME ( 9, 38, 44.00000000000000000, #169 ) ;
#17 = DIRECTION ( 'NONE',  ( 0.0000000000000000000, 1.000000000000000000, 0.0000000000000000000 ) ) ;
#18 = VERTEX_POINT ( 'NONE', #132 ) ;
#19 = MANIFOLD_SOLID_BREP ( 'Corps-Déplacer/Copier1[1]', #167 ) ;
#20 =( NAMED_UNIT ( * ) PLANE_ANGLE_UNIT ( ) SI_UNIT ( $, .RADIAN. ) );
#21 = DIRECTION ( 'NONE',  ( 3.491481338843133355E-15, -1.224646799147353207E-16, 1.000000000000000000 ) ) ;
#22 = DIRECTION ( 'NONE',  ( -3.491481338843133355E-15, 1.224646799147353207E-16, -1.000000000000000000 ) ) ;
#23 = CONICAL_SURFACE ( 'NONE', #53, 0.6999999999999952927, 0.7853981633974453924 ) ;
#24 = CYLINDRICAL_SURFACE ( 'NONE', #88, 0.9999999999999940048 ) ;
#25 = EDGE_CURVE ( 'NONE', #2, #2, #44, .T. ) ;
#26 = APPLICATION_PROTOCOL_DEFINITION ( 'international standard', 'config_control_design', 1994, #107 ) ;
#27 = APPROVAL_STATUS ( 'not_yet_approved' ) ;
#28 = SHAPE_DEFINITION_REPRESENTATION ( #114, #168 ) ;
#29 = CALENDAR_DATE ( 2021, 9, 11 ) ;
#30 = APPLICATION_PROTOCOL_DEFINITION ( 'international standard', 'config_control_design', 1994, #120 ) ;
#31 = ORIENTED_EDGE ( 'NONE', *, *, #13, .T. ) ;
#32 = CC_DESIGN_APPROVAL ( #164, ( #118 ) ) ;
#33 = DIRECTION ( 'NONE',  ( 0.0000000000000000000, 1.000000000000000000, 0.0000000000000000000 ) ) ;
#34 = CC_DESIGN_DATE_AND_TIME_ASSIGNMENT ( #51, #85, ( #192 ) ) ;
#35 = DIRECTION ( 'NONE',  ( -3.491481338843133355E-15, 1.224646799147353207E-16, -1.000000000000000000 ) ) ;
#36 = AXIS2_PLACEMENT_3D ( 'NONE', #62, #46, #147 ) ;
#37 = VERTEX_POINT ( 'NONE', #179 ) ;
#38 = CARTESIAN_POINT ( 'NONE',  ( -1.282752946116176051E-30, 4.499291667640762045E-32, -3.673950457203941576E-16 ) ) ;
#39 = FACE_OUTER_BOUND ( 'NONE', #60, .T. ) ;
#40 = PERSON_AND_ORGANIZATION ( #201, #186 ) ;
#41 = ADVANCED_FACE ( 'NONE', ( #140 ), #202, .T. ) ;
#42 = EDGE_LOOP ( 'NONE', ( #31 ) ) ;
#43 = ORIENTED_EDGE ( 'NONE', *, *, #90, .T. ) ;
#44 = CIRCLE ( 'NONE', #101, 0.9999999999999913403 ) ;
#45 = DIRECTION ( 'NONE',  ( -3.491481338843133355E-15, 1.224646799147353207E-16, -1.000000000000000000 ) ) ;
#46 = DIRECTION ( 'NONE',  ( -3.491481338843133355E-15, 1.224646799147353207E-16, -1.000000000000000000 ) ) ;
#47 = FACE_BOUND ( 'NONE', #156, .T. ) ;
#48 = DIRECTION ( 'NONE',  ( 0.0000000000000000000, 1.000000000000000000, 0.0000000000000000000 ) ) ;
#49 = CALENDAR_DATE ( 2021, 9, 11 ) ;
#50 = SECURITY_CLASSIFICATION ( '', '', #11 ) ;
#51 = DATE_AND_TIME ( #153, #16 ) ;
#52 = CALENDAR_DATE ( 2021, 9, 11 ) ;
#53 = AXIS2_PLACEMENT_3D ( 'NONE', #110, #45, #94 ) ;
#54 = COORDINATED_UNIVERSAL_TIME_OFFSET ( 1, 0, .AHEAD. ) ;
#55 = CC_DESIGN_PERSON_AND_ORGANIZATION_ASSIGNMENT ( #116, #83, ( #50 ) ) ;
#56 = ADVANCED_FACE ( 'NONE', ( #39, #47 ), #23, .T. ) ;
#57 =( GEOMETRIC_REPRESENTATION_CONTEXT ( 3 ) GLOBAL_UNCERTAINTY_ASSIGNED_CONTEXT ( ( #77 ) ) GLOBAL_UNIT_ASSIGNED_CONTEXT ( ( #112, #20, #109 ) ) REPRESENTATION_CONTEXT ( 'NONE', 'WORKASPACE' ) );
#58 = EDGE_LOOP ( 'NONE', ( #43 ) ) ;
#59 = CARTESIAN_POINT ( 'NONE',  ( 2.793185071074506684E-14, 7.498798913309216879E-33, 8.000000000000000000 ) ) ;
#60 = EDGE_LOOP ( 'NONE', ( #68 ) ) ;
#61 = AXIS2_PLACEMENT_3D ( 'NONE', #177, #163, #63 ) ;
#62 = CARTESIAN_POINT ( 'NONE',  ( 1.117274028429802674E-13, -3.918869757271530263E-15, 32.00000000000000000 ) ) ;
#63 = DIRECTION ( 'NONE',  ( -4.275831445896958607E-31, -1.000000000000000000, -1.224646799147353207E-16 ) ) ;
#64 = COORDINATED_UNIVERSAL_TIME_OFFSET ( 1, 0, .AHEAD. ) ;
#65 = CIRCLE ( 'NONE', #184, 0.9999999999999924505 ) ;
#66 = PERSON_AND_ORGANIZATION ( #201, #186 ) ;
#67 = AXIS2_PLACEMENT_3D ( 'NONE', #151, #117, #134 ) ;
#68 = ORIENTED_EDGE ( 'NONE', *, *, #126, .F. ) ;
#69 = DIRECTION ( 'NONE',  ( -3.491481338843133355E-15, 1.224646799147353207E-16, -1.000000000000000000 ) ) ;
#70 = ADVANCED_FACE ( 'NONE', ( #127, #71 ), #75, .T. ) ;
#71 = FACE_OUTER_BOUND ( 'NONE', #58, .T. ) ;
#72 = CARTESIAN_POINT ( 'NONE',  ( 2.793185071074506684E-14, -9.797174393178825657E-16, 8.000000000000000000 ) ) ;
#73 = FACE_OUTER_BOUND ( 'NONE', #103, .T. ) ;
#74 = PRODUCT ( '57064', '57064', '', ( #81 ) ) ;
#75 = CYLINDRICAL_SURFACE ( 'NONE', #160, 0.9999999999999917843 ) ;
#76 = APPROVAL ( #12, 'UNSPECIFIED' ) ;
#77 = UNCERTAINTY_MEASURE_WITH_UNIT (LENGTH_MEASURE( 1.000000000000000082E-05 ), #112, 'distance_accuracy_value', 'NONE');
#78 = CIRCLE ( 'NONE', #5, 0.9999999999999952260 ) ;
#79 = PLANE ( 'NONE',  #82 ) ;
#80 = PERSON_AND_ORGANIZATION_ROLE ( 'creator' ) ;
#81 = MECHANICAL_CONTEXT ( 'NONE', #107, 'mechanical' ) ;
#82 = AXIS2_PLACEMENT_3D ( 'NONE', #189, #190, #6 ) ;
#83 = PERSON_AND_ORGANIZATION_ROLE ( 'classification_officer' ) ;
#84 = ADVANCED_FACE ( 'NONE', ( #146 ), #188, .F. ) ;
#85 = DATE_TIME_ROLE ( 'creation_date' ) ;
#86 = LOCAL_TIME ( 9, 38, 44.00000000000000000, #64 ) ;
#87 = ORIENTED_EDGE ( 'NONE', *, *, #25, .F. ) ;
#88 = AXIS2_PLACEMENT_3D ( 'NONE', #144, #22, #113 ) ;
#89 = ORIENTED_EDGE ( 'NONE', *, *, #126, .T. ) ;
#90 = EDGE_CURVE ( 'NONE', #9, #9, #65, .T. ) ;
#91 = CARTESIAN_POINT ( 'NONE',  ( 0.0000000000000000000, 0.0000000000000000000, 0.0000000000000000000 ) ) ;
#92 = CARTESIAN_POINT ( 'NONE',  ( -2.137922747642659920E-30, 0.9999999999999913403, -6.123254115260540545E-16 ) ) ;
#93 = PLANE ( 'NONE',  #150 ) ;
#94 = DIRECTION ( 'NONE',  ( 0.0000000000000000000, 1.000000000000000000, 0.0000000000000000000 ) ) ;
#95 = ADVANCED_FACE ( 'NONE', ( #161 ), #93, .F. ) ;
#96 = CC_DESIGN_SECURITY_CLASSIFICATION ( #50, ( #118 ) ) ;
#97 = PRODUCT_RELATED_PRODUCT_CATEGORY ( 'detail', '', ( #74 ) ) ;
#98 = PERSON_AND_ORGANIZATION ( #201, #186 ) ;
#99 = APPROVAL_DATE_TIME ( #194, #181 ) ;
#100 = EDGE_LOOP ( 'NONE', ( #122 ) ) ;
#101 = AXIS2_PLACEMENT_3D ( 'NONE', #138, #69, #121 ) ;
#102 = APPROVAL_PERSON_ORGANIZATION ( #193, #76, #180 ) ;
#103 = EDGE_LOOP ( 'NONE', ( #89 ) ) ;
#104 = ORIENTED_EDGE ( 'NONE', *, *, #25, .T. ) ;
#105 = LOCAL_TIME ( 9, 38, 44.00000000000000000, #15 ) ;
#106 = EDGE_LOOP ( 'NONE', ( #203 ) ) ;
#107 = APPLICATION_CONTEXT ( 'configuration controlled 3d designs of mechanical parts and assemblies' ) ;
#108 = CARTESIAN_POINT ( 'NONE',  ( 1.117274028429802674E-13, 0.6999999999999914069, 32.00000000000000000 ) ) ;
#109 =( NAMED_UNIT ( * ) SI_UNIT ( $, .STERADIAN. ) SOLID_ANGLE_UNIT ( ) );
#110 = CARTESIAN_POINT ( 'NONE',  ( 1.117274028429802674E-13, -3.918869757271530263E-15, 32.00000000000000000 ) ) ;
#111 = CC_DESIGN_APPROVAL ( #76, ( #50 ) ) ;
#112 =( LENGTH_UNIT ( ) NAMED_UNIT ( * ) SI_UNIT ( .MILLI., .METRE. ) );
#113 = DIRECTION ( 'NONE',  ( 4.275831445896957731E-31, 1.000000000000000000, 1.224646799147352961E-16 ) ) ;
#114 = PRODUCT_DEFINITION_SHAPE ( 'NONE', 'NONE',  #192 ) ;
#115 = DATE_AND_TIME ( #49, #176 ) ;
#116 = PERSON_AND_ORGANIZATION ( #201, #186 ) ;
#117 = DIRECTION ( 'NONE',  ( 0.0000000000000000000, 0.0000000000000000000, 1.000000000000000000 ) ) ;
#118 = PRODUCT_DEFINITION_FORMATION_WITH_SPECIFIED_SOURCE ( 'ANY', '', #74, .NOT_KNOWN. ) ;
#119 = CC_DESIGN_PERSON_AND_ORGANIZATION_ASSIGNMENT ( #66, #135, ( #118 ) ) ;
#120 = APPLICATION_CONTEXT ( 'configuration controlled 3d designs of mechanical parts and assemblies' ) ;
#121 = DIRECTION ( 'NONE',  ( 4.275831445896959482E-31, 1.000000000000000000, 1.224646799147353454E-16 ) ) ;
#122 = ORIENTED_EDGE ( 'NONE', *, *, #170, .F. ) ;
#123 = EDGE_LOOP ( 'NONE', ( #87 ) ) ;
#124 = ADVANCED_FACE ( 'NONE', ( #162, #73 ), #24, .T. ) ;
#125 = DIRECTION ( 'NONE',  ( 3.491481338843133355E-15, -1.224646799147353207E-16, 1.000000000000000000 ) ) ;
#126 = EDGE_CURVE ( 'NONE', #18, #18, #78, .T. ) ;
#127 = FACE_OUTER_BOUND ( 'NONE', #123, .T. ) ;
#128 = CC_DESIGN_PERSON_AND_ORGANIZATION_ASSIGNMENT ( #198, #165, ( #118 ) ) ;
#129 = CARTESIAN_POINT ( 'NONE',  ( 1.106799584413273211E-13, -3.882130353297110192E-15, 31.69999999999999929 ) ) ;
#130 = DIRECTION ( 'NONE',  ( 4.275831445896958607E-31, 1.000000000000000000, 1.224646799147353207E-16 ) ) ;
#131 = CIRCLE ( 'NONE', #36, 0.6999999999999952927 ) ;
#132 = CARTESIAN_POINT ( 'NONE',  ( 1.106799584413273211E-13, 0.9999999999999913403, 31.69999999999999929 ) ) ;
#133 = DATE_AND_TIME ( #29, #105 ) ;
#134 = DIRECTION ( 'NONE',  ( 1.000000000000000000, 0.0000000000000000000, 0.0000000000000000000 ) ) ;
#135 = PERSON_AND_ORGANIZATION_ROLE ( 'design_supplier' ) ;
#136 = PERSON_AND_ORGANIZATION_ROLE ( 'design_owner' ) ;
#137 = DATE_AND_TIME ( #182, #195 ) ;
#138 = CARTESIAN_POINT ( 'NONE',  ( -2.565505892232352102E-30, 8.998583335281524091E-32, -7.347900914407883152E-16 ) ) ;
#139 = CARTESIAN_POINT ( 'NONE',  ( 2.793185071074506684E-14, -9.797174393178825657E-16, 8.000000000000000000 ) ) ;
#140 = FACE_OUTER_BOUND ( 'NONE', #106, .T. ) ;
#141 = CC_DESIGN_PERSON_AND_ORGANIZATION_ASSIGNMENT ( #98, #80, ( #192 ) ) ;
#142 = APPROVAL_PERSON_ORGANIZATION ( #185, #164, #148 ) ;
#143 = CARTESIAN_POINT ( 'NONE',  ( 2.793185071074506684E-14, 0.9999999999999913403, 8.000000000000000000 ) ) ;
#144 = CARTESIAN_POINT ( 'NONE',  ( 0.0000000000000000000, 0.0000000000000000000, 0.0000000000000000000 ) ) ;
#145 = DIRECTION ( 'NONE',  ( -4.275831445896958607E-31, -1.000000000000000000, -1.224646799147353207E-16 ) ) ;
#146 = FACE_OUTER_BOUND ( 'NONE', #42, .T. ) ;
#147 = DIRECTION ( 'NONE',  ( 0.0000000000000000000, 1.000000000000000000, 0.0000000000000000000 ) ) ;
#148 = APPROVAL_ROLE ( '' ) ;
#149 = APPROVAL_DATE_TIME ( #133, #164 ) ;
#150 = AXIS2_PLACEMENT_3D ( 'NONE', #38, #21, #145 ) ;
#151 = CARTESIAN_POINT ( 'NONE',  ( 0.0000000000000000000, 0.0000000000000000000, 0.0000000000000000000 ) ) ;
#152 = COORDINATED_UNIVERSAL_TIME_OFFSET ( 1, 0, .AHEAD. ) ;
#153 = CALENDAR_DATE ( 2021, 9, 11 ) ;
#154 = AXIS2_PLACEMENT_3D ( 'NONE', #59, #125, #174 ) ;
#155 = ADVANCED_FACE ( 'NONE', ( #191 ), #79, .F. ) ;
#156 = EDGE_LOOP ( 'NONE', ( #171 ) ) ;
#157 = MANIFOLD_SOLID_BREP ( 'Corps-Déplacer/Copier1[2]', #158 ) ;
#158 = CLOSED_SHELL ( 'NONE', ( #95, #70, #41 ) ) ;
#159 = ORIENTED_EDGE ( 'NONE', *, *, #13, .F. ) ;
#160 = AXIS2_PLACEMENT_3D ( 'NONE', #91, #35, #130 ) ;
#161 = FACE_OUTER_BOUND ( 'NONE', #173, .T. ) ;
#162 = FACE_OUTER_BOUND ( 'NONE', #199, .T. ) ;
#163 = DIRECTION ( 'NONE',  ( 3.491481338843133355E-15, -1.224646799147353207E-16, 1.000000000000000000 ) ) ;
#164 = APPROVAL ( #14, 'UNSPECIFIED' ) ;
#165 = PERSON_AND_ORGANIZATION_ROLE ( 'creator' ) ;
#166 = APPROVAL_DATE_TIME ( #115, #76 ) ;
#167 = CLOSED_SHELL ( 'NONE', ( #84, #124, #56, #155 ) ) ;
#168 = ADVANCED_BREP_SHAPE_REPRESENTATION ( '57064', ( #19, #157, #67 ), #57 ) ;
#169 = COORDINATED_UNIVERSAL_TIME_OFFSET ( 1, 0, .AHEAD. ) ;
#170 = EDGE_CURVE ( 'NONE', #187, #187, #131, .T. ) ;
#171 = ORIENTED_EDGE ( 'NONE', *, *, #170, .T. ) ;
#172 = APPROVAL_PERSON_ORGANIZATION ( #183, #181, #196 ) ;
#173 = EDGE_LOOP ( 'NONE', ( #104 ) ) ;
#174 = DIRECTION ( 'NONE',  ( -4.275831445896958607E-31, -1.000000000000000000, -1.224646799147353207E-16 ) ) ;
#175 = AXIS2_PLACEMENT_3D ( 'NONE', #139, #200, #17 ) ;
#176 = LOCAL_TIME ( 9, 38, 44.00000000000000000, #54 ) ;
#177 = CARTESIAN_POINT ( 'NONE',  ( 2.793185071074506684E-14, 7.498798913309216879E-33, 8.000000000000000000 ) ) ;
#178 = DIRECTION ( 'NONE',  ( -3.491481338843133355E-15, 1.224646799147353207E-16, -1.000000000000000000 ) ) ;
#179 = CARTESIAN_POINT ( 'NONE',  ( 2.793185071074506684E-14, 0.9999999999999913403, 8.000000000000000000 ) ) ;
#180 = APPROVAL_ROLE ( '' ) ;
#181 = APPROVAL ( #27, 'UNSPECIFIED' ) ;
#182 = CALENDAR_DATE ( 2021, 9, 11 ) ;
#183 = PERSON_AND_ORGANIZATION ( #201, #186 ) ;
#184 = AXIS2_PLACEMENT_3D ( 'NONE', #72, #178, #48 ) ;
#185 = PERSON_AND_ORGANIZATION ( #201, #186 ) ;
#186 = ORGANIZATION ( 'UNSPECIFIED', 'UNSPECIFIED', '' ) ;
#187 = VERTEX_POINT ( 'NONE', #108 ) ;
#188 = PLANE ( 'NONE',  #61 ) ;
#189 = CARTESIAN_POINT ( 'NONE',  ( 1.117274028429802674E-13, 5.249159239316407888E-33, 32.00000000000000000 ) ) ;
#190 = DIRECTION ( 'NONE',  ( -3.491481338843133355E-15, 1.224646799147353207E-16, -1.000000000000000000 ) ) ;
#191 = FACE_OUTER_BOUND ( 'NONE', #100, .T. ) ;
#192 = PRODUCT_DEFINITION ( 'UNKNOWN', '', #118, #8 ) ;
#193 = PERSON_AND_ORGANIZATION ( #201, #186 ) ;
#194 = DATE_AND_TIME ( #52, #86 ) ;
#195 = LOCAL_TIME ( 9, 38, 44.00000000000000000, #152 ) ;
#196 = APPROVAL_ROLE ( '' ) ;
#197 = DATE_TIME_ROLE ( 'classification_date' ) ;
#198 = PERSON_AND_ORGANIZATION ( #201, #186 ) ;
#199 = EDGE_LOOP ( 'NONE', ( #159 ) ) ;
#200 = DIRECTION ( 'NONE',  ( -3.491481338843133355E-15, 1.224646799147353207E-16, -1.000000000000000000 ) ) ;
#201 = PERSON ( 'UNSPECIFIED', 'UNSPECIFIED', 'UNSPECIFIED', ('UNSPECIFIED'), ('UNSPECIFIED'), ('UNSPECIFIED') ) ;
#202 = PLANE ( 'NONE',  #154 ) ;
#203 = ORIENTED_EDGE ( 'NONE', *, *, #90, .F. ) ;
ENDSEC;
END-ISO-10303-21;
