ISO-10303-21;
HEADER;
FILE_DESCRIPTION (( 'STEP AP203' ),
    '1' );
FILE_NAME ('57063.step',
    '2021-11-09T08:38:43',
    ( '' ),
    ( '' ),
    'SwSTEP 2.0',
    'SolidWorks 2019',
    '' );
FILE_SCHEMA (( 'CONFIG_CONTROL_DESIGN' ));
ENDSEC;

DATA;
#1 = CC_DESIGN_SECURITY_CLASSIFICATION ( #116, ( #38 ) ) ;
#2 = CARTESIAN_POINT ( 'NONE',  ( 2.094888803305879382E-14, 7.498798913309218248E-33, 5.999999999999998224 ) ) ;
#3 =( LENGTH_UNIT ( ) NAMED_UNIT ( * ) SI_UNIT ( .MILLI., .METRE. ) );
#4 = FACE_OUTER_BOUND ( 'NONE', #47, .T. ) ;
#5 = ADVANCED_FACE ( 'NONE', ( #190 ), #33, .F. ) ;
#6 = CARTESIAN_POINT ( 'NONE',  ( 2.787708153041017325E-14, -0.9999999999999961142, 7.984313483298454805 ) ) ;
#7 = CARTESIAN_POINT ( 'NONE',  ( 1.117274028429802674E-13, 5.249159239316407888E-33, 32.00000000000000000 ) ) ;
#8 = DIRECTION ( 'NONE',  ( 4.275831445896957731E-31, 1.000000000000000000, 1.224646799147353207E-16 ) ) ;
#9 = ADVANCED_FACE ( 'NONE', ( #191 ), #153, .T. ) ;
#10 = PERSON_AND_ORGANIZATION ( #199, #105 ) ;
#11 = PERSON_AND_ORGANIZATION_ROLE ( 'creator' ) ;
#12 = APPROVAL_DATE_TIME ( #168, #157 ) ;
#13 = ORIENTED_EDGE ( 'NONE', *, *, #177, .F. ) ;
#14 = PERSON_AND_ORGANIZATION ( #199, #105 ) ;
#15 = EDGE_LOOP ( 'NONE', ( #169 ) ) ;
#16 = CARTESIAN_POINT ( 'NONE',  ( 2.787708153041017325E-14, -9.868160460978873551E-16, 7.984313483298454805 ) ) ;
#17 = CC_DESIGN_PERSON_AND_ORGANIZATION_ASSIGNMENT ( #126, #130, ( #38 ) ) ;
#18 = CC_DESIGN_APPROVAL ( #98, ( #38 ) ) ;
#19 = APPROVAL_PERSON_ORGANIZATION ( #48, #192, #146 ) ;
#20 = FACE_OUTER_BOUND ( 'NONE', #131, .T. ) ;
#21 = DIRECTION ( 'NONE',  ( 0.0000000000000000000, -1.000000000000000000, 0.0000000000000000000 ) ) ;
#22 = FACE_OUTER_BOUND ( 'NONE', #52, .T. ) ;
#23 = AXIS2_PLACEMENT_3D ( 'NONE', #41, #44, #56 ) ;
#24 = UNCERTAINTY_MEASURE_WITH_UNIT (LENGTH_MEASURE( 1.000000000000000082E-05 ), #3, 'distance_accuracy_value', 'NONE');
#25 = DIRECTION ( 'NONE',  ( -3.491481338843133355E-15, 1.224646799147353207E-16, -1.000000000000000000 ) ) ;
#26 = CARTESIAN_POINT ( 'NONE',  ( 2.094888803305879382E-14, 7.498798913309218248E-33, 5.999999999999998224 ) ) ;
#27 = CALENDAR_DATE ( 2021, 9, 11 ) ;
#28 = ORIENTED_EDGE ( 'NONE', *, *, #140, .T. ) ;
#29 = EDGE_CURVE ( 'NONE', #55, #55, #51, .T. ) ;
#30 = APPROVAL_ROLE ( '' ) ;
#31 = PERSON_AND_ORGANIZATION ( #199, #105 ) ;
#32 = AXIS2_PLACEMENT_3D ( 'NONE', #181, #107, #104 ) ;
#33 = PLANE ( 'NONE',  #97 ) ;
#34 = APPLICATION_PROTOCOL_DEFINITION ( 'international standard', 'config_control_design', 1994, #193 ) ;
#35 = DIRECTION ( 'NONE',  ( 3.491481338843133355E-15, -1.235943513693574240E-16, 1.000000000000000000 ) ) ;
#36 = ADVANCED_FACE ( 'NONE', ( #135, #205 ), #60, .F. ) ;
#37 = PRODUCT_DEFINITION_SHAPE ( 'NONE', 'NONE',  #90 ) ;
#38 = PRODUCT_DEFINITION_FORMATION_WITH_SPECIFIED_SOURCE ( 'ANY', '', #40, .NOT_KNOWN. ) ;
#39 = FACE_OUTER_BOUND ( 'NONE', #221, .T. ) ;
#40 = PRODUCT ( '57063', '57063', '', ( #99 ) ) ;
#41 = CARTESIAN_POINT ( 'NONE',  ( -1.282752946116176051E-30, 4.499291667640762045E-32, -3.673950457203941576E-16 ) ) ;
#42 = VERTEX_POINT ( 'NONE', #124 ) ;
#43 = CIRCLE ( 'NONE', #204, 0.7499999999999927836 ) ;
#44 = DIRECTION ( 'NONE',  ( 3.491481338843133355E-15, -1.224646799147353207E-16, 1.000000000000000000 ) ) ;
#45 = APPLICATION_PROTOCOL_DEFINITION ( 'international standard', 'config_control_design', 1994, #196 ) ;
#46 = COORDINATED_UNIVERSAL_TIME_OFFSET ( 1, 0, .AHEAD. ) ;
#47 = EDGE_LOOP ( 'NONE', ( #144 ) ) ;
#48 = PERSON_AND_ORGANIZATION ( #199, #105 ) ;
#49 = PERSON_AND_ORGANIZATION ( #199, #105 ) ;
#50 = COORDINATED_UNIVERSAL_TIME_OFFSET ( 1, 0, .AHEAD. ) ;
#51 = CIRCLE ( 'NONE', #128, 0.9999999999999950040 ) ;
#52 = EDGE_LOOP ( 'NONE', ( #186 ) ) ;
#53 = CC_DESIGN_PERSON_AND_ORGANIZATION_ASSIGNMENT ( #81, #11, ( #90 ) ) ;
#54 = ADVANCED_FACE ( 'NONE', ( #39 ), #160, .F. ) ;
#55 = VERTEX_POINT ( 'NONE', #6 ) ;
#56 = DIRECTION ( 'NONE',  ( -4.275831445896958607E-31, -1.000000000000000000, -1.224646799147353207E-16 ) ) ;
#57 = CARTESIAN_POINT ( 'NONE',  ( 2.094888803305879382E-14, -7.415661082161443468E-16, 5.999999999999998224 ) ) ;
#58 = CC_DESIGN_PERSON_AND_ORGANIZATION_ASSIGNMENT ( #14, #64, ( #116 ) ) ;
#59 = CARTESIAN_POINT ( 'NONE',  ( 2.094888803305879382E-14, -7.415661082161443468E-16, 5.999999999999998224 ) ) ;
#60 = TOROIDAL_SURFACE ( 'NONE', #102, 8.749999999999991118, 8.000000000000000000 ) ;
#61 = DIRECTION ( 'NONE',  ( -3.491481338843133355E-15, 1.224646799147353207E-16, -1.000000000000000000 ) ) ;
#62 = PERSON_AND_ORGANIZATION ( #199, #105 ) ;
#63 = ORIENTED_EDGE ( 'NONE', *, *, #29, .T. ) ;
#64 = PERSON_AND_ORGANIZATION_ROLE ( 'classification_officer' ) ;
#65 = LOCAL_TIME ( 9, 38, 43.00000000000000000, #167 ) ;
#66 = CC_DESIGN_DATE_AND_TIME_ASSIGNMENT ( #217, #151, ( #90 ) ) ;
#67 = DIRECTION ( 'NONE',  ( 1.000000000000000000, 0.0000000000000000000, 0.0000000000000000000 ) ) ;
#68 = ORIENTED_EDGE ( 'NONE', *, *, #73, .F. ) ;
#69 = APPROVAL_ROLE ( '' ) ;
#70 = CALENDAR_DATE ( 2021, 9, 11 ) ;
#71 = LOCAL_TIME ( 9, 38, 43.00000000000000000, #184 ) ;
#72 = DIRECTION ( 'NONE',  ( -4.275831445896958607E-31, -1.000000000000000000, -1.224646799147353207E-16 ) ) ;
#73 = EDGE_CURVE ( 'NONE', #77, #77, #173, .T. ) ;
#74 = DIRECTION ( 'NONE',  ( -4.315273713925326938E-31, -1.000000000000000000, -1.235943513693574240E-16 ) ) ;
#75 = AXIS2_PLACEMENT_3D ( 'NONE', #7, #121, #213 ) ;
#76 = CYLINDRICAL_SURFACE ( 'NONE', #32, 0.7499999999999920064 ) ;
#77 = VERTEX_POINT ( 'NONE', #161 ) ;
#78 = DIRECTION ( 'NONE',  ( 3.491481338843133355E-15, -1.235943513693574240E-16, 1.000000000000000000 ) ) ;
#79 = AXIS2_PLACEMENT_3D ( 'NONE', #142, #158, #74 ) ;
#80 = FACE_OUTER_BOUND ( 'NONE', #114, .T. ) ;
#81 = PERSON_AND_ORGANIZATION ( #199, #105 ) ;
#82 = AXIS2_PLACEMENT_3D ( 'NONE', #178, #122, #89 ) ;
#83 = DIRECTION ( 'NONE',  ( 0.0000000000000000000, -1.000000000000000000, 0.0000000000000000000 ) ) ;
#84 = CLOSED_SHELL ( 'NONE', ( #182, #220, #85, #36, #5 ) ) ;
#85 = ADVANCED_FACE ( 'NONE', ( #176 ), #106, .F. ) ;
#86 = DIRECTION ( 'NONE',  ( -3.491481338843133355E-15, 1.224646799147353207E-16, -1.000000000000000000 ) ) ;
#87 = CARTESIAN_POINT ( 'NONE',  ( 2.094888803305879067E-14, 0.0000000000000000000, 5.999999999999997335 ) ) ;
#88 = LOCAL_TIME ( 9, 38, 43.00000000000000000, #46 ) ;
#89 = DIRECTION ( 'NONE',  ( 0.0000000000000000000, 1.000000000000000000, 0.0000000000000000000 ) ) ;
#90 = PRODUCT_DEFINITION ( 'UNKNOWN', '', #38, #162 ) ;
#91 = CYLINDRICAL_SURFACE ( 'NONE', #206, 0.9999999999999935607 ) ;
#92 = CARTESIAN_POINT ( 'NONE',  ( 1.009794459431693286E-31, -0.7499999999999911182, 2.892166279675084164E-17 ) ) ;
#93 =( GEOMETRIC_REPRESENTATION_CONTEXT ( 3 ) GLOBAL_UNCERTAINTY_ASSIGNED_CONTEXT ( ( #24 ) ) GLOBAL_UNIT_ASSIGNED_CONTEXT ( ( #3, #133, #152 ) ) REPRESENTATION_CONTEXT ( 'NONE', 'WORKASPACE' ) );
#94 = COORDINATED_UNIVERSAL_TIME_OFFSET ( 1, 0, .AHEAD. ) ;
#95 = EDGE_CURVE ( 'NONE', #209, #209, #117, .T. ) ;
#96 = APPROVAL_STATUS ( 'not_yet_approved' ) ;
#97 = AXIS2_PLACEMENT_3D ( 'NONE', #26, #127, #100 ) ;
#98 = APPROVAL ( #132, 'UNSPECIFIED' ) ;
#99 = MECHANICAL_CONTEXT ( 'NONE', #193, 'mechanical' ) ;
#100 = DIRECTION ( 'NONE',  ( -4.275831445896958607E-31, -1.000000000000000000, -1.224646799147353207E-16 ) ) ;
#101 = CIRCLE ( 'NONE', #180, 0.7499999999999927836 ) ;
#102 = AXIS2_PLACEMENT_3D ( 'NONE', #87, #78, #103 ) ;
#103 = DIRECTION ( 'NONE',  ( -4.378689342351021642E-31, -1.000000000000000000, -1.235943513693574240E-16 ) ) ;
#104 = DIRECTION ( 'NONE',  ( -4.315273713925326062E-31, -1.000000000000000000, -1.235943513693573994E-16 ) ) ;
#105 = ORGANIZATION ( 'UNSPECIFIED', 'UNSPECIFIED', '' ) ;
#106 = PLANE ( 'NONE',  #75 ) ;
#107 = DIRECTION ( 'NONE',  ( 3.491481338843133355E-15, -1.235943513693574240E-16, 1.000000000000000000 ) ) ;
#108 = DATE_AND_TIME ( #70, #65 ) ;
#109 = ORIENTED_EDGE ( 'NONE', *, *, #95, .F. ) ;
#110 = LOCAL_TIME ( 9, 38, 43.00000000000000000, #94 ) ;
#111 = DIRECTION ( 'NONE',  ( 0.0000000000000000000, 0.0000000000000000000, 1.000000000000000000 ) ) ;
#112 = ORIENTED_EDGE ( 'NONE', *, *, #177, .T. ) ;
#113 = CARTESIAN_POINT ( 'NONE',  ( 0.0000000000000000000, 0.0000000000000000000, 0.0000000000000000000 ) ) ;
#114 = EDGE_LOOP ( 'NONE', ( #68 ) ) ;
#115 = CALENDAR_DATE ( 2021, 9, 11 ) ;
#116 = SECURITY_CLASSIFICATION ( '', '', #203 ) ;
#117 = CIRCLE ( 'NONE', #79, 0.7499999999999911182 ) ;
#118 = DIRECTION ( 'NONE',  ( 3.491481338843133355E-15, -1.224646799147353207E-16, 1.000000000000000000 ) ) ;
#119 = AXIS2_PLACEMENT_3D ( 'NONE', #195, #25, #139 ) ;
#120 = ADVANCED_BREP_SHAPE_REPRESENTATION ( '57063', ( #172, #163, #148 ), #93 ) ;
#121 = DIRECTION ( 'NONE',  ( -3.491481338843133355E-15, 1.224646799147353207E-16, -1.000000000000000000 ) ) ;
#122 = DIRECTION ( 'NONE',  ( -3.491481338843133355E-15, 1.224646799147353207E-16, -1.000000000000000000 ) ) ;
#123 = CARTESIAN_POINT ( 'NONE',  ( 0.0000000000000000000, 0.0000000000000000000, 0.0000000000000000000 ) ) ;
#124 = CARTESIAN_POINT ( 'NONE',  ( 2.094888803305879382E-14, -0.7499999999999935607, 5.999999999999998224 ) ) ;
#125 = ORIENTED_EDGE ( 'NONE', *, *, #140, .F. ) ;
#126 = PERSON_AND_ORGANIZATION ( #199, #105 ) ;
#127 = DIRECTION ( 'NONE',  ( 3.491481338843133355E-15, -1.224646799147353207E-16, 1.000000000000000000 ) ) ;
#128 = AXIS2_PLACEMENT_3D ( 'NONE', #16, #35, #83 ) ;
#129 = DATE_AND_TIME ( #115, #137 ) ;
#130 = PERSON_AND_ORGANIZATION_ROLE ( 'creator' ) ;
#131 = EDGE_LOOP ( 'NONE', ( #63 ) ) ;
#132 = APPROVAL_STATUS ( 'not_yet_approved' ) ;
#133 =( NAMED_UNIT ( * ) PLANE_ANGLE_UNIT ( ) SI_UNIT ( $, .RADIAN. ) );
#134 = CC_DESIGN_APPROVAL ( #192, ( #90 ) ) ;
#135 = FACE_OUTER_BOUND ( 'NONE', #197, .T. ) ;
#136 = ADVANCED_FACE ( 'NONE', ( #4, #211 ), #76, .T. ) ;
#137 = LOCAL_TIME ( 9, 38, 43.00000000000000000, #50 ) ;
#138 = DIRECTION ( 'NONE',  ( 0.0000000000000000000, -1.000000000000000000, 0.0000000000000000000 ) ) ;
#139 = DIRECTION ( 'NONE',  ( 0.0000000000000000000, 1.000000000000000000, 0.0000000000000000000 ) ) ;
#140 = EDGE_CURVE ( 'NONE', #164, #164, #101, .T. ) ;
#141 = VERTEX_POINT ( 'NONE', #210 ) ;
#142 = CARTESIAN_POINT ( 'NONE',  ( 4.246249744875650172E-31, -3.016685741423447126E-32, 1.216174263237678250E-16 ) ) ;
#143 = CARTESIAN_POINT ( 'NONE',  ( 2.094888803305879382E-14, -0.7499999999999935607, 5.999999999999998224 ) ) ;
#144 = ORIENTED_EDGE ( 'NONE', *, *, #95, .T. ) ;
#145 = APPROVAL_DATE_TIME ( #222, #98 ) ;
#146 = APPROVAL_ROLE ( '' ) ;
#147 = CC_DESIGN_PERSON_AND_ORGANIZATION_ASSIGNMENT ( #49, #188, ( #38 ) ) ;
#148 = AXIS2_PLACEMENT_3D ( 'NONE', #113, #111, #67 ) ;
#149 = DATE_TIME_ROLE ( 'classification_date' ) ;
#150 = ORIENTED_EDGE ( 'NONE', *, *, #29, .F. ) ;
#151 = DATE_TIME_ROLE ( 'creation_date' ) ;
#152 =( NAMED_UNIT ( * ) SI_UNIT ( $, .STERADIAN. ) SOLID_ANGLE_UNIT ( ) );
#153 = PLANE ( 'NONE',  #170 ) ;
#154 = EDGE_CURVE ( 'NONE', #141, #141, #175, .T. ) ;
#155 = APPROVAL_PERSON_ORGANIZATION ( #62, #157, #30 ) ;
#156 = FACE_BOUND ( 'NONE', #202, .T. ) ;
#157 = APPROVAL ( #198, 'UNSPECIFIED' ) ;
#158 = DIRECTION ( 'NONE',  ( 3.491481338843133355E-15, -1.235943513693574240E-16, 1.000000000000000000 ) ) ;
#159 = AXIS2_PLACEMENT_3D ( 'NONE', #207, #86, #194 ) ;
#160 = PLANE ( 'NONE',  #23 ) ;
#161 = CARTESIAN_POINT ( 'NONE',  ( 1.106799584413273211E-13, 0.9999999999999913403, 31.69999999999999929 ) ) ;
#162 = DESIGN_CONTEXT ( 'detailed design', #196, 'design' ) ;
#163 = MANIFOLD_SOLID_BREP ( 'Corps-Déplacer/Copier1[2]', #212 ) ;
#164 = VERTEX_POINT ( 'NONE', #143 ) ;
#165 = CC_DESIGN_APPROVAL ( #157, ( #116 ) ) ;
#166 = EDGE_LOOP ( 'NONE', ( #150 ) ) ;
#167 = COORDINATED_UNIVERSAL_TIME_OFFSET ( 1, 0, .AHEAD. ) ;
#168 = DATE_AND_TIME ( #219, #88 ) ;
#169 = ORIENTED_EDGE ( 'NONE', *, *, #154, .F. ) ;
#170 = AXIS2_PLACEMENT_3D ( 'NONE', #2, #118, #72 ) ;
#171 = APPROVAL_DATE_TIME ( #108, #192 ) ;
#172 = MANIFOLD_SOLID_BREP ( 'Corps-Déplacer/Copier1[1]', #84 ) ;
#173 = CIRCLE ( 'NONE', #82, 0.9999999999999952260 ) ;
#174 = CC_DESIGN_PERSON_AND_ORGANIZATION_ASSIGNMENT ( #31, #189, ( #40 ) ) ;
#175 = CIRCLE ( 'NONE', #159, 0.6999999999999952927 ) ;
#176 = FACE_OUTER_BOUND ( 'NONE', #15, .T. ) ;
#177 = EDGE_CURVE ( 'NONE', #42, #42, #43, .T. ) ;
#178 = CARTESIAN_POINT ( 'NONE',  ( 1.106799584413273211E-13, -3.882130353297110192E-15, 31.69999999999999929 ) ) ;
#179 = DIRECTION ( 'NONE',  ( 3.491481338843133355E-15, -1.235943513693574240E-16, 1.000000000000000000 ) ) ;
#180 = AXIS2_PLACEMENT_3D ( 'NONE', #59, #179, #21 ) ;
#181 = CARTESIAN_POINT ( 'NONE',  ( -4.275743254511121536E-31, 0.0000000000000000000, -1.224621540130541035E-16 ) ) ;
#182 = ADVANCED_FACE ( 'NONE', ( #22, #20 ), #91, .T. ) ;
#183 = DIRECTION ( 'NONE',  ( 3.491481338843133355E-15, -1.235943513693574240E-16, 1.000000000000000000 ) ) ;
#184 = COORDINATED_UNIVERSAL_TIME_OFFSET ( 1, 0, .AHEAD. ) ;
#185 = APPROVAL_PERSON_ORGANIZATION ( #10, #98, #69 ) ;
#186 = ORIENTED_EDGE ( 'NONE', *, *, #73, .T. ) ;
#187 = PRODUCT_RELATED_PRODUCT_CATEGORY ( 'detail', '', ( #40 ) ) ;
#188 = PERSON_AND_ORGANIZATION_ROLE ( 'design_supplier' ) ;
#189 = PERSON_AND_ORGANIZATION_ROLE ( 'design_owner' ) ;
#190 = FACE_OUTER_BOUND ( 'NONE', #214, .T. ) ;
#191 = FACE_OUTER_BOUND ( 'NONE', #218, .T. ) ;
#192 = APPROVAL ( #96, 'UNSPECIFIED' ) ;
#193 = APPLICATION_CONTEXT ( 'configuration controlled 3d designs of mechanical parts and assemblies' ) ;
#194 = DIRECTION ( 'NONE',  ( 0.0000000000000000000, 1.000000000000000000, 0.0000000000000000000 ) ) ;
#195 = CARTESIAN_POINT ( 'NONE',  ( 1.117274028429802674E-13, -3.918869757271530263E-15, 32.00000000000000000 ) ) ;
#196 = APPLICATION_CONTEXT ( 'configuration controlled 3d designs of mechanical parts and assemblies' ) ;
#197 = EDGE_LOOP ( 'NONE', ( #28 ) ) ;
#198 = APPROVAL_STATUS ( 'not_yet_approved' ) ;
#199 = PERSON ( 'UNSPECIFIED', 'UNSPECIFIED', 'UNSPECIFIED', ('UNSPECIFIED'), ('UNSPECIFIED'), ('UNSPECIFIED') ) ;
#200 = CALENDAR_DATE ( 2021, 9, 11 ) ;
#201 = SHAPE_DEFINITION_REPRESENTATION ( #37, #120 ) ;
#202 = EDGE_LOOP ( 'NONE', ( #216 ) ) ;
#203 = SECURITY_CLASSIFICATION_LEVEL ( 'unclassified' ) ;
#204 = AXIS2_PLACEMENT_3D ( 'NONE', #57, #183, #138 ) ;
#205 = FACE_OUTER_BOUND ( 'NONE', #166, .T. ) ;
#206 = AXIS2_PLACEMENT_3D ( 'NONE', #123, #61, #8 ) ;
#207 = CARTESIAN_POINT ( 'NONE',  ( 1.117274028429802674E-13, -3.918869757271530263E-15, 32.00000000000000000 ) ) ;
#208 = CONICAL_SURFACE ( 'NONE', #119, 0.6999999999999952927, 0.7853981633974453924 ) ;
#209 = VERTEX_POINT ( 'NONE', #92 ) ;
#210 = CARTESIAN_POINT ( 'NONE',  ( 1.117274028429802674E-13, 0.6999999999999914069, 32.00000000000000000 ) ) ;
#211 = FACE_OUTER_BOUND ( 'NONE', #223, .T. ) ;
#212 = CLOSED_SHELL ( 'NONE', ( #9, #136, #54 ) ) ;
#213 = DIRECTION ( 'NONE',  ( 4.275831445896958607E-31, 1.000000000000000000, 1.224646799147353207E-16 ) ) ;
#214 = EDGE_LOOP ( 'NONE', ( #125 ) ) ;
#215 = CC_DESIGN_DATE_AND_TIME_ASSIGNMENT ( #129, #149, ( #116 ) ) ;
#216 = ORIENTED_EDGE ( 'NONE', *, *, #154, .T. ) ;
#217 = DATE_AND_TIME ( #27, #71 ) ;
#218 = EDGE_LOOP ( 'NONE', ( #112 ) ) ;
#219 = CALENDAR_DATE ( 2021, 9, 11 ) ;
#220 = ADVANCED_FACE ( 'NONE', ( #80, #156 ), #208, .T. ) ;
#221 = EDGE_LOOP ( 'NONE', ( #109 ) ) ;
#222 = DATE_AND_TIME ( #200, #110 ) ;
#223 = EDGE_LOOP ( 'NONE', ( #13 ) ) ;
ENDSEC;
END-ISO-10303-21;
