ISO-10303-21;
HEADER;
FILE_DESCRIPTION (( 'STEP AP203' ),
    '1' );
FILE_NAME ('57050.step',
    '2021-11-12T08:11:23',
    ( '' ),
    ( '' ),
    'SwSTEP 2.0',
    'SolidWorks 2019',
    '' );
FILE_SCHEMA (( 'CONFIG_CONTROL_DESIGN' ));
ENDSEC;

DATA;
#1 =( NAMED_UNIT ( * ) SI_UNIT ( $, .STERADIAN. ) SOLID_ANGLE_UNIT ( ) );
#2 = DIRECTION ( 'NONE',  ( -4.275831445896958607E-31, -1.000000000000000000, -1.224646799147353207E-16 ) ) ;
#3 = VERTEX_POINT ( 'NONE', #172 ) ;
#4 = FACE_OUTER_BOUND ( 'NONE', #121, .T. ) ;
#5 = CC_DESIGN_PERSON_AND_ORGANIZATION_ASSIGNMENT ( #193, #194, ( #173 ) ) ;
#6 = FACE_BOUND ( 'NONE', #46, .T. ) ;
#7 = CARTESIAN_POINT ( 'NONE',  ( 2.618611004132350143E-13, 3.499999999999996003, 75.00000000000000000 ) ) ;
#8 = ORIENTED_EDGE ( 'NONE', *, *, #122, .F. ) ;
#9 = DATE_AND_TIME ( #176, #73 ) ;
#10 = PRODUCT_DEFINITION ( 'UNKNOWN', '', #21, #132 ) ;
#11 = DATE_AND_TIME ( #111, #191 ) ;
#12 = AXIS2_PLACEMENT_3D ( 'NONE', #37, #171, #23 ) ;
#13 = ORIENTED_EDGE ( 'NONE', *, *, #122, .T. ) ;
#14 = ORIENTED_EDGE ( 'NONE', *, *, #28, .T. ) ;
#15 = PERSON_AND_ORGANIZATION ( #190, #107 ) ;
#16 = CC_DESIGN_PERSON_AND_ORGANIZATION_ASSIGNMENT ( #15, #95, ( #72 ) ) ;
#17 = AXIS2_PLACEMENT_3D ( 'NONE', #168, #209, #34 ) ;
#18 = CC_DESIGN_APPROVAL ( #105, ( #10 ) ) ;
#19 = CIRCLE ( 'NONE', #138, 3.799999999999999822 ) ;
#20 = VERTEX_POINT ( 'NONE', #63 ) ;
#21 = PRODUCT_DEFINITION_FORMATION_WITH_SPECIFIED_SOURCE ( 'ANY', '', #72, .NOT_KNOWN. ) ;
#22 = FACE_BOUND ( 'NONE', #187, .T. ) ;
#23 = DIRECTION ( 'NONE',  ( 1.000000000000000000, 0.0000000000000000000, 0.0000000000000000000 ) ) ;
#24 = EDGE_LOOP ( 'NONE', ( #211 ) ) ;
#25 = CARTESIAN_POINT ( 'NONE',  ( 2.601153597438134539E-13, -9.123618653647782737E-15, 74.50000000000001421 ) ) ;
#26 = DIRECTION ( 'NONE',  ( -3.491481338843133355E-15, 1.224646799147353207E-16, -1.000000000000000000 ) ) ;
#27 = DATE_TIME_ROLE ( 'classification_date' ) ;
#28 = EDGE_CURVE ( 'NONE', #149, #149, #80, .T. ) ;
#29 = ORIENTED_EDGE ( 'NONE', *, *, #185, .T. ) ;
#30 = DIRECTION ( 'NONE',  ( -3.491481338843133355E-15, 1.224646799147353207E-16, -1.000000000000000000 ) ) ;
#31 = EDGE_LOOP ( 'NONE', ( #13 ) ) ;
#32 = APPROVAL_ROLE ( '' ) ;
#33 = CC_DESIGN_DATE_AND_TIME_ASSIGNMENT ( #61, #89, ( #10 ) ) ;
#34 = DIRECTION ( 'NONE',  ( 0.0000000000000000000, 1.000000000000000000, 0.0000000000000000000 ) ) ;
#35 = CONICAL_SURFACE ( 'NONE', #90, 3.799999999999999822, 0.7853981633974485010 ) ;
#36 = LOCAL_TIME ( 9, 11, 23.00000000000000000, #124 ) ;
#37 = CARTESIAN_POINT ( 'NONE',  ( 0.0000000000000000000, 0.0000000000000000000, 0.0000000000000000000 ) ) ;
#38 = FACE_OUTER_BOUND ( 'NONE', #219, .T. ) ;
#39 = DIRECTION ( 'NONE',  ( 0.0000000000000000000, 1.000000000000000000, 0.0000000000000000000 ) ) ;
#40 = APPROVAL_STATUS ( 'not_yet_approved' ) ;
#41 = EDGE_LOOP ( 'NONE', ( #157 ) ) ;
#42 = COORDINATED_UNIVERSAL_TIME_OFFSET ( 1, 0, .AHEAD. ) ;
#43 = APPROVAL_ROLE ( '' ) ;
#44 = APPROVAL_PERSON_ORGANIZATION ( #218, #170, #43 ) ;
#45 = CARTESIAN_POINT ( 'NONE',  ( 2.618611004132350143E-13, -9.184850993605148733E-15, 75.00000000000000000 ) ) ;
#46 = EDGE_LOOP ( 'NONE', ( #127 ) ) ;
#47 = ADVANCED_FACE ( 'NONE', ( #199, #143 ), #93, .T. ) ;
#48 = DIRECTION ( 'NONE',  ( -3.491481338843133355E-15, 1.224646799147353207E-16, -1.000000000000000000 ) ) ;
#49 = UNCERTAINTY_MEASURE_WITH_UNIT (LENGTH_MEASURE( 1.000000000000000082E-05 ), #205, 'distance_accuracy_value', 'NONE');
#50 = EDGE_CURVE ( 'NONE', #84, #84, #19, .T. ) ;
#51 = DIRECTION ( 'NONE',  ( -3.491481338843133355E-15, 1.224646799147353207E-16, -1.000000000000000000 ) ) ;
#52 = CARTESIAN_POINT ( 'NONE',  ( -1.624815949440844235E-30, 5.699087174115058910E-32, -4.653657836759942730E-16 ) ) ;
#53 = PLANE ( 'NONE',  #147 ) ;
#54 = CLOSED_SHELL ( 'NONE', ( #163, #91, #204, #195 ) ) ;
#55 = CC_DESIGN_SECURITY_CLASSIFICATION ( #173, ( #21 ) ) ;
#56 = COORDINATED_UNIVERSAL_TIME_OFFSET ( 1, 0, .AHEAD. ) ;
#57 = PLANE ( 'NONE',  #206 ) ;
#58 = EDGE_LOOP ( 'NONE', ( #192 ) ) ;
#59 = ADVANCED_BREP_SHAPE_REPRESENTATION ( '57050', ( #214, #131, #12 ), #96 ) ;
#60 = EDGE_LOOP ( 'NONE', ( #29 ) ) ;
#61 = DATE_AND_TIME ( #92, #36 ) ;
#62 = CC_DESIGN_PERSON_AND_ORGANIZATION_ASSIGNMENT ( #71, #94, ( #10 ) ) ;
#63 = CARTESIAN_POINT ( 'NONE',  ( 8.728703347107833388E-14, 3.999999999999996447, 25.00000000000000000 ) ) ;
#64 = APPLICATION_PROTOCOL_DEFINITION ( 'international standard', 'config_control_design', 1994, #181 ) ;
#65 = CIRCLE ( 'NONE', #154, 3.999999999999999112 ) ;
#66 = CYLINDRICAL_SURFACE ( 'NONE', #98, 4.000000000000000000 ) ;
#67 = CARTESIAN_POINT ( 'NONE',  ( 2.601153597438134539E-13, 3.999999999999989786, 74.50000000000001421 ) ) ;
#68 = DIRECTION ( 'NONE',  ( -3.491481338843133355E-15, 1.224646799147353207E-16, -1.000000000000000000 ) ) ;
#69 = SHAPE_DEFINITION_REPRESENTATION ( #217, #59 ) ;
#70 = DIRECTION ( 'NONE',  ( -3.491481338843133355E-15, 1.224646799147353207E-16, -1.000000000000000000 ) ) ;
#71 = PERSON_AND_ORGANIZATION ( #190, #107 ) ;
#72 = PRODUCT ( '57050', '57050', '', ( #117 ) ) ;
#73 = LOCAL_TIME ( 9, 11, 23.00000000000000000, #42 ) ;
#74 = ORIENTED_EDGE ( 'NONE', *, *, #150, .F. ) ;
#75 = APPLICATION_CONTEXT ( 'configuration controlled 3d designs of mechanical parts and assemblies' ) ;
#76 = ORIENTED_EDGE ( 'NONE', *, *, #28, .F. ) ;
#77 = AXIS2_PLACEMENT_3D ( 'NONE', #220, #70, #141 ) ;
#78 = COORDINATED_UNIVERSAL_TIME_OFFSET ( 1, 0, .AHEAD. ) ;
#79 = APPROVAL ( #87, 'UNSPECIFIED' ) ;
#80 = CIRCLE ( 'NONE', #110, 3.500000000000005329 ) ;
#81 = CARTESIAN_POINT ( 'NONE',  ( 2.618611004132350143E-13, 2.624579619658241508E-32, 75.00000000000000000 ) ) ;
#82 = EDGE_CURVE ( 'NONE', #3, #3, #167, .T. ) ;
#83 = PLANE ( 'NONE',  #208 ) ;
#84 = VERTEX_POINT ( 'NONE', #184 ) ;
#85 = CARTESIAN_POINT ( 'NONE',  ( 8.728703347107833388E-14, -3.061616997868383043E-15, 25.00000000000000000 ) ) ;
#86 = VERTEX_POINT ( 'NONE', #67 ) ;
#87 = APPROVAL_STATUS ( 'not_yet_approved' ) ;
#88 = CARTESIAN_POINT ( 'NONE',  ( 0.0000000000000000000, 0.0000000000000000000, 0.0000000000000000000 ) ) ;
#89 = DATE_TIME_ROLE ( 'creation_date' ) ;
#90 = AXIS2_PLACEMENT_3D ( 'NONE', #52, #174, #159 ) ;
#91 = ADVANCED_FACE ( 'NONE', ( #162, #175 ), #66, .T. ) ;
#92 = CALENDAR_DATE ( 2021, 12, 11 ) ;
#93 = CYLINDRICAL_SURFACE ( 'NONE', #212, 4.000000000000000000 ) ;
#94 = PERSON_AND_ORGANIZATION_ROLE ( 'creator' ) ;
#95 = PERSON_AND_ORGANIZATION_ROLE ( 'design_owner' ) ;
#96 =( GEOMETRIC_REPRESENTATION_CONTEXT ( 3 ) GLOBAL_UNCERTAINTY_ASSIGNED_CONTEXT ( ( #49 ) ) GLOBAL_UNIT_ASSIGNED_CONTEXT ( ( #205, #148, #1 ) ) REPRESENTATION_CONTEXT ( 'NONE', 'WORKASPACE' ) );
#97 = DIRECTION ( 'NONE',  ( -3.491481338843133355E-15, 1.224646799147353207E-16, -1.000000000000000000 ) ) ;
#98 = AXIS2_PLACEMENT_3D ( 'NONE', #88, #30, #210 ) ;
#99 = DIRECTION ( 'NONE',  ( -3.491481338843133355E-15, 1.224646799147353207E-16, -1.000000000000000000 ) ) ;
#100 = CONICAL_SURFACE ( 'NONE', #116, 3.999999999999999112, 0.7853981633974557175 ) ;
#101 = FACE_OUTER_BOUND ( 'NONE', #24, .T. ) ;
#102 = CARTESIAN_POINT ( 'NONE',  ( -8.124079747204221177E-31, 2.849543587057529455E-32, -2.326828918379971365E-16 ) ) ;
#103 = EDGE_LOOP ( 'NONE', ( #74 ) ) ;
#104 = DIRECTION ( 'NONE',  ( 0.0000000000000000000, 1.000000000000000000, 0.0000000000000000000 ) ) ;
#105 = APPROVAL ( #129, 'UNSPECIFIED' ) ;
#106 = CIRCLE ( 'NONE', #17, 4.000000000000000000 ) ;
#107 = ORGANIZATION ( 'UNSPECIFIED', 'UNSPECIFIED', '' ) ;
#108 = CARTESIAN_POINT ( 'NONE',  ( 0.0000000000000000000, 0.0000000000000000000, 0.0000000000000000000 ) ) ;
#109 = DIRECTION ( 'NONE',  ( 4.275831445896958607E-31, 1.000000000000000000, 1.224646799147353207E-16 ) ) ;
#110 = AXIS2_PLACEMENT_3D ( 'NONE', #45, #68, #39 ) ;
#111 = CALENDAR_DATE ( 2021, 12, 11 ) ;
#112 = APPROVAL_PERSON_ORGANIZATION ( #123, #105, #165 ) ;
#113 = ADVANCED_FACE ( 'NONE', ( #142, #6 ), #35, .T. ) ;
#114 = PLANE ( 'NONE',  #178 ) ;
#115 = DIRECTION ( 'NONE',  ( 4.275831445896958607E-31, 1.000000000000000000, 1.224646799147353207E-16 ) ) ;
#116 = AXIS2_PLACEMENT_3D ( 'NONE', #25, #51, #119 ) ;
#117 = MECHANICAL_CONTEXT ( 'NONE', #181, 'mechanical' ) ;
#118 = CC_DESIGN_PERSON_AND_ORGANIZATION_ASSIGNMENT ( #120, #188, ( #21 ) ) ;
#119 = DIRECTION ( 'NONE',  ( 0.0000000000000000000, 1.000000000000000000, 0.0000000000000000000 ) ) ;
#120 = PERSON_AND_ORGANIZATION ( #190, #107 ) ;
#121 = EDGE_LOOP ( 'NONE', ( #126 ) ) ;
#122 = EDGE_CURVE ( 'NONE', #166, #166, #177, .T. ) ;
#123 = PERSON_AND_ORGANIZATION ( #190, #107 ) ;
#124 = COORDINATED_UNIVERSAL_TIME_OFFSET ( 1, 0, .AHEAD. ) ;
#125 = CARTESIAN_POINT ( 'NONE',  ( 8.728703347107833388E-14, 2.999519565323710837E-32, 25.00000000000000000 ) ) ;
#126 = ORIENTED_EDGE ( 'NONE', *, *, #50, .T. ) ;
#127 = ORIENTED_EDGE ( 'NONE', *, *, #50, .F. ) ;
#128 = AXIS2_PLACEMENT_3D ( 'NONE', #85, #26, #104 ) ;
#129 = APPROVAL_STATUS ( 'not_yet_approved' ) ;
#130 = CC_DESIGN_PERSON_AND_ORGANIZATION_ASSIGNMENT ( #146, #216, ( #21 ) ) ;
#131 = MANIFOLD_SOLID_BREP ( 'Corps-Déplacer/Copier1[2]', #198 ) ;
#132 = DESIGN_CONTEXT ( 'detailed design', #75, 'design' ) ;
#133 = DIRECTION ( 'NONE',  ( -4.275831445896958607E-31, -1.000000000000000000, -1.224646799147353207E-16 ) ) ;
#134 = DIRECTION ( 'NONE',  ( 0.0000000000000000000, 1.000000000000000000, 0.0000000000000000000 ) ) ;
#135 = ORIENTED_EDGE ( 'NONE', *, *, #150, .T. ) ;
#136 = DIRECTION ( 'NONE',  ( 3.491481338843133355E-15, -1.224646799147353207E-16, 1.000000000000000000 ) ) ;
#137 = DIRECTION ( 'NONE',  ( -3.491481338843133355E-15, 1.224646799147353207E-16, -1.000000000000000000 ) ) ;
#138 = AXIS2_PLACEMENT_3D ( 'NONE', #180, #48, #155 ) ;
#139 = LOCAL_TIME ( 9, 11, 23.00000000000000000, #56 ) ;
#140 = DATE_AND_TIME ( #200, #169 ) ;
#141 = DIRECTION ( 'NONE',  ( 4.333342374871280669E-31, 1.000000000000000000, 1.219727444046192488E-16 ) ) ;
#142 = FACE_OUTER_BOUND ( 'NONE', #31, .T. ) ;
#143 = FACE_OUTER_BOUND ( 'NONE', #221, .T. ) ;
#144 = ADVANCED_FACE ( 'NONE', ( #179 ), #57, .T. ) ;
#145 = COORDINATED_UNIVERSAL_TIME_OFFSET ( 1, 0, .AHEAD. ) ;
#146 = PERSON_AND_ORGANIZATION ( #190, #107 ) ;
#147 = AXIS2_PLACEMENT_3D ( 'NONE', #81, #99, #151 ) ;
#148 =( NAMED_UNIT ( * ) PLANE_ANGLE_UNIT ( ) SI_UNIT ( $, .RADIAN. ) );
#149 = VERTEX_POINT ( 'NONE', #7 ) ;
#150 = EDGE_CURVE ( 'NONE', #20, #20, #106, .T. ) ;
#151 = DIRECTION ( 'NONE',  ( 4.275831445896958607E-31, 1.000000000000000000, 1.224646799147353207E-16 ) ) ;
#152 = CARTESIAN_POINT ( 'NONE',  ( 8.728703347107833388E-14, 2.999519565323710837E-32, 25.00000000000000000 ) ) ;
#153 = CC_DESIGN_APPROVAL ( #79, ( #173 ) ) ;
#154 = AXIS2_PLACEMENT_3D ( 'NONE', #156, #183, #134 ) ;
#155 = DIRECTION ( 'NONE',  ( 4.275831445896958607E-31, 1.000000000000000000, 1.224646799147353454E-16 ) ) ;
#156 = CARTESIAN_POINT ( 'NONE',  ( 2.601153597438134539E-13, -9.123618653647782737E-15, 74.50000000000001421 ) ) ;
#157 = ORIENTED_EDGE ( 'NONE', *, *, #185, .F. ) ;
#158 = SECURITY_CLASSIFICATION_LEVEL ( 'unclassified' ) ;
#159 = DIRECTION ( 'NONE',  ( -4.275831445896958607E-31, -1.000000000000000000, -1.224646799147353454E-16 ) ) ;
#160 = CALENDAR_DATE ( 2021, 12, 11 ) ;
#161 = DIRECTION ( 'NONE',  ( 3.491481338843133355E-15, -1.224646799147353207E-16, 1.000000000000000000 ) ) ;
#162 = FACE_OUTER_BOUND ( 'NONE', #60, .T. ) ;
#163 = ADVANCED_FACE ( 'NONE', ( #101 ), #114, .F. ) ;
#164 = DATE_AND_TIME ( #160, #139 ) ;
#165 = APPROVAL_ROLE ( '' ) ;
#166 = VERTEX_POINT ( 'NONE', #207 ) ;
#167 = CIRCLE ( 'NONE', #128, 4.000000000000000000 ) ;
#168 = CARTESIAN_POINT ( 'NONE',  ( 8.728703347107833388E-14, -3.061616997868383043E-15, 25.00000000000000000 ) ) ;
#169 = LOCAL_TIME ( 9, 11, 23.00000000000000000, #78 ) ;
#170 = APPROVAL ( #40, 'UNSPECIFIED' ) ;
#171 = DIRECTION ( 'NONE',  ( 0.0000000000000000000, 0.0000000000000000000, 1.000000000000000000 ) ) ;
#172 = CARTESIAN_POINT ( 'NONE',  ( 8.728703347107833388E-14, 3.999999999999996447, 25.00000000000000000 ) ) ;
#173 = SECURITY_CLASSIFICATION ( '', '', #158 ) ;
#174 = DIRECTION ( 'NONE',  ( 3.491481338843133355E-15, -1.224646799147353207E-16, 1.000000000000000000 ) ) ;
#175 = FACE_OUTER_BOUND ( 'NONE', #58, .T. ) ;
#176 = CALENDAR_DATE ( 2021, 12, 11 ) ;
#177 = CIRCLE ( 'NONE', #77, 4.000000000000000000 ) ;
#178 = AXIS2_PLACEMENT_3D ( 'NONE', #152, #136, #133 ) ;
#179 = FACE_OUTER_BOUND ( 'NONE', #103, .T. ) ;
#180 = CARTESIAN_POINT ( 'NONE',  ( -1.624815949440844235E-30, 5.699087174115058910E-32, -4.653657836759942730E-16 ) ) ;
#181 = APPLICATION_CONTEXT ( 'configuration controlled 3d designs of mechanical parts and assemblies' ) ;
#182 = PERSON_AND_ORGANIZATION ( #190, #107 ) ;
#183 = DIRECTION ( 'NONE',  ( -3.491481338843133355E-15, 1.224646799147353207E-16, -1.000000000000000000 ) ) ;
#184 = CARTESIAN_POINT ( 'NONE',  ( 0.0000000000000000000, 3.799999999999999822, 0.0000000000000000000 ) ) ;
#185 = EDGE_CURVE ( 'NONE', #86, #86, #65, .T. ) ;
#186 = FACE_OUTER_BOUND ( 'NONE', #41, .T. ) ;
#187 = EDGE_LOOP ( 'NONE', ( #14 ) ) ;
#188 = PERSON_AND_ORGANIZATION_ROLE ( 'design_supplier' ) ;
#189 = CC_DESIGN_DATE_AND_TIME_ASSIGNMENT ( #11, #27, ( #173 ) ) ;
#190 = PERSON ( 'UNSPECIFIED', 'UNSPECIFIED', 'UNSPECIFIED', ('UNSPECIFIED'), ('UNSPECIFIED'), ('UNSPECIFIED') ) ;
#191 = LOCAL_TIME ( 9, 11, 23.00000000000000000, #145 ) ;
#192 = ORIENTED_EDGE ( 'NONE', *, *, #82, .F. ) ;
#193 = PERSON_AND_ORGANIZATION ( #190, #107 ) ;
#194 = PERSON_AND_ORGANIZATION_ROLE ( 'classification_officer' ) ;
#195 = ADVANCED_FACE ( 'NONE', ( #38 ), #53, .F. ) ;
#196 = APPROVAL_DATE_TIME ( #140, #105 ) ;
#197 = EDGE_LOOP ( 'NONE', ( #135 ) ) ;
#198 = CLOSED_SHELL ( 'NONE', ( #215, #113, #47, #144 ) ) ;
#199 = FACE_OUTER_BOUND ( 'NONE', #197, .T. ) ;
#200 = CALENDAR_DATE ( 2021, 12, 11 ) ;
#201 = CC_DESIGN_APPROVAL ( #170, ( #21 ) ) ;
#202 = PRODUCT_RELATED_PRODUCT_CATEGORY ( 'detail', '', ( #72 ) ) ;
#203 = APPROVAL_PERSON_ORGANIZATION ( #182, #79, #32 ) ;
#204 = ADVANCED_FACE ( 'NONE', ( #22, #186 ), #100, .T. ) ;
#205 =( LENGTH_UNIT ( ) NAMED_UNIT ( * ) SI_UNIT ( .MILLI., .METRE. ) );
#206 = AXIS2_PLACEMENT_3D ( 'NONE', #125, #161, #2 ) ;
#207 = CARTESIAN_POINT ( 'NONE',  ( 6.982962677686267697E-16, 4.000000000000000000, 0.2000000000000000111 ) ) ;
#208 = AXIS2_PLACEMENT_3D ( 'NONE', #102, #97, #115 ) ;
#209 = DIRECTION ( 'NONE',  ( -3.491481338843133355E-15, 1.224646799147353207E-16, -1.000000000000000000 ) ) ;
#210 = DIRECTION ( 'NONE',  ( 4.275831445896958607E-31, 1.000000000000000000, 1.224646799147353207E-16 ) ) ;
#211 = ORIENTED_EDGE ( 'NONE', *, *, #82, .T. ) ;
#212 = AXIS2_PLACEMENT_3D ( 'NONE', #108, #137, #109 ) ;
#213 = APPROVAL_DATE_TIME ( #9, #79 ) ;
#214 = MANIFOLD_SOLID_BREP ( 'Corps-Déplacer/Copier1[1]', #54 ) ;
#215 = ADVANCED_FACE ( 'NONE', ( #4 ), #83, .T. ) ;
#216 = PERSON_AND_ORGANIZATION_ROLE ( 'creator' ) ;
#217 = PRODUCT_DEFINITION_SHAPE ( 'NONE', 'NONE',  #10 ) ;
#218 = PERSON_AND_ORGANIZATION ( #190, #107 ) ;
#219 = EDGE_LOOP ( 'NONE', ( #76 ) ) ;
#220 = CARTESIAN_POINT ( 'NONE',  ( 6.982962677686249947E-16, -2.449293598294700375E-17, 0.1999999999999995115 ) ) ;
#221 = EDGE_LOOP ( 'NONE', ( #8 ) ) ;
#222 = APPLICATION_PROTOCOL_DEFINITION ( 'international standard', 'config_control_design', 1994, #75 ) ;
#223 = APPROVAL_DATE_TIME ( #164, #170 ) ;
ENDSEC;
END-ISO-10303-21;
