ISO-10303-21;
HEADER;
FILE_DESCRIPTION (( 'STEP AP203' ),
    '1' );
FILE_NAME ('57048.step',
    '2021-11-12T08:11:23',
    ( '' ),
    ( '' ),
    'SwSTEP 2.0',
    'SolidWorks 2019',
    '' );
FILE_SCHEMA (( 'CONFIG_CONTROL_DESIGN' ));
ENDSEC;

DATA;
#1 = DIRECTION ( 'NONE',  ( -4.275831445896958607E-31, -1.000000000000000000, -1.224646799147353207E-16 ) ) ;
#2 = FACE_BOUND ( 'NONE', #115, .T. ) ;
#3 = CARTESIAN_POINT ( 'NONE',  ( 0.0000000000000000000, 2.799999999999999822, 0.0000000000000000000 ) ) ;
#4 = CARTESIAN_POINT ( 'NONE',  ( 2.601153597438134034E-13, 2.999999999999988898, 74.49999999999998579 ) ) ;
#5 = LOCAL_TIME ( 9, 11, 23.00000000000000000, #125 ) ;
#6 = APPROVAL_ROLE ( '' ) ;
#7 = DIRECTION ( 'NONE',  ( -3.491481338843133355E-15, 1.224646799147353207E-16, -1.000000000000000000 ) ) ;
#8 = PERSON_AND_ORGANIZATION ( #73, #141 ) ;
#9 = PERSON_AND_ORGANIZATION ( #73, #141 ) ;
#10 = CC_DESIGN_APPROVAL ( #40, ( #134 ) ) ;
#11 = CARTESIAN_POINT ( 'NONE',  ( 6.982962677686266711E-14, 2.999999999999997780, 20.00000000000000000 ) ) ;
#12 = CARTESIAN_POINT ( 'NONE',  ( 6.982962677686254878E-16, -2.449293598294702224E-17, 0.1999999999999996503 ) ) ;
#13 = CIRCLE ( 'NONE', #130, 3.000000000000000444 ) ;
#14 = FACE_OUTER_BOUND ( 'NONE', #80, .T. ) ;
#15 = DIRECTION ( 'NONE',  ( -3.491481338843133355E-15, 1.224646799147353207E-16, -1.000000000000000000 ) ) ;
#16 = LOCAL_TIME ( 9, 11, 23.00000000000000000, #177 ) ;
#17 = APPROVAL ( #200, 'UNSPECIFIED' ) ;
#18 = CC_DESIGN_PERSON_AND_ORGANIZATION_ASSIGNMENT ( #106, #153, ( #134 ) ) ;
#19 = AXIS2_PLACEMENT_3D ( 'NONE', #82, #160, #213 ) ;
#20 = CC_DESIGN_APPROVAL ( #78, ( #34 ) ) ;
#21 = PERSON_AND_ORGANIZATION ( #73, #141 ) ;
#22 = CARTESIAN_POINT ( 'NONE',  ( 2.618611004132350143E-13, -9.184850993605148733E-15, 75.00000000000000000 ) ) ;
#23 = FACE_OUTER_BOUND ( 'NONE', #219, .T. ) ;
#24 = APPROVAL_DATE_TIME ( #114, #17 ) ;
#25 = EDGE_LOOP ( 'NONE', ( #66 ) ) ;
#26 = AXIS2_PLACEMENT_3D ( 'NONE', #100, #7, #205 ) ;
#27 = CARTESIAN_POINT ( 'NONE',  ( 6.982962677686266711E-14, 2.999999999999997780, 20.00000000000000000 ) ) ;
#28 = EDGE_LOOP ( 'NONE', ( #113 ) ) ;
#29 = DIRECTION ( 'NONE',  ( -3.491481338843133355E-15, 1.224646799147353207E-16, -1.000000000000000000 ) ) ;
#30 = CYLINDRICAL_SURFACE ( 'NONE', #215, 2.999999999999999112 ) ;
#31 = DIRECTION ( 'NONE',  ( -3.491481338843133355E-15, 1.224646799147353207E-16, -1.000000000000000000 ) ) ;
#32 = LOCAL_TIME ( 9, 11, 23.00000000000000000, #63 ) ;
#33 = DIRECTION ( 'NONE',  ( 3.491481338843133355E-15, -1.224646799147353207E-16, 1.000000000000000000 ) ) ;
#34 = SECURITY_CLASSIFICATION ( '', '', #169 ) ;
#35 = PERSON_AND_ORGANIZATION_ROLE ( 'creator' ) ;
#36 = VERTEX_POINT ( 'NONE', #216 ) ;
#37 = DIRECTION ( 'NONE',  ( 3.491481338843133355E-15, -1.224646799147353207E-16, 1.000000000000000000 ) ) ;
#38 =( NAMED_UNIT ( * ) PLANE_ANGLE_UNIT ( ) SI_UNIT ( $, .RADIAN. ) );
#39 = CARTESIAN_POINT ( 'NONE',  ( 2.601153597438134034E-13, -9.123618653647779582E-15, 74.49999999999998579 ) ) ;
#40 = APPROVAL ( #147, 'UNSPECIFIED' ) ;
#41 = APPROVAL_ROLE ( '' ) ;
#42 = DIRECTION ( 'NONE',  ( 0.0000000000000000000, 0.0000000000000000000, 1.000000000000000000 ) ) ;
#43 = APPLICATION_CONTEXT ( 'configuration controlled 3d designs of mechanical parts and assemblies' ) ;
#44 = CYLINDRICAL_SURFACE ( 'NONE', #52, 3.000000000000000000 ) ;
#45 = DIRECTION ( 'NONE',  ( 0.0000000000000000000, 1.000000000000000000, 0.0000000000000000000 ) ) ;
#46 = DIRECTION ( 'NONE',  ( 0.0000000000000000000, 1.000000000000000000, 0.0000000000000000000 ) ) ;
#47 = LOCAL_TIME ( 9, 11, 23.00000000000000000, #217 ) ;
#48 = AXIS2_PLACEMENT_3D ( 'NONE', #58, #37, #75 ) ;
#49 = ADVANCED_FACE ( 'NONE', ( #2, #14 ), #179, .T. ) ;
#50 = SHAPE_DEFINITION_REPRESENTATION ( #104, #146 ) ;
#51 = AXIS2_PLACEMENT_3D ( 'NONE', #22, #156, #81 ) ;
#52 = AXIS2_PLACEMENT_3D ( 'NONE', #194, #29, #117 ) ;
#53 = PRODUCT_DEFINITION ( 'UNKNOWN', '', #134, #124 ) ;
#54 = APPROVAL_DATE_TIME ( #210, #40 ) ;
#55 = PERSON_AND_ORGANIZATION_ROLE ( 'design_owner' ) ;
#56 = DIRECTION ( 'NONE',  ( -3.491481338843133355E-15, 1.224646799147353207E-16, -1.000000000000000000 ) ) ;
#57 = VERTEX_POINT ( 'NONE', #74 ) ;
#58 = CARTESIAN_POINT ( 'NONE',  ( -1.197232804851148375E-30, 4.199327391453201302E-32, -3.429011037612588783E-16 ) ) ;
#59 = EDGE_LOOP ( 'NONE', ( #201 ) ) ;
#60 = AXIS2_PLACEMENT_3D ( 'NONE', #158, #199, #1 ) ;
#61 = CARTESIAN_POINT ( 'NONE',  ( 0.0000000000000000000, 0.0000000000000000000, 0.0000000000000000000 ) ) ;
#62 = CC_DESIGN_PERSON_AND_ORGANIZATION_ASSIGNMENT ( #76, #88, ( #53 ) ) ;
#63 = COORDINATED_UNIVERSAL_TIME_OFFSET ( 1, 0, .AHEAD. ) ;
#64 = FACE_OUTER_BOUND ( 'NONE', #118, .T. ) ;
#65 = APPROVAL_ROLE ( '' ) ;
#66 = ORIENTED_EDGE ( 'NONE', *, *, #165, .F. ) ;
#67 = DIRECTION ( 'NONE',  ( 4.275831445896958607E-31, 1.000000000000000000, 1.224646799147353207E-16 ) ) ;
#68 = AXIS2_PLACEMENT_3D ( 'NONE', #176, #190, #89 ) ;
#69 = UNCERTAINTY_MEASURE_WITH_UNIT (LENGTH_MEASURE( 1.000000000000000082E-05 ), #112, 'distance_accuracy_value', 'NONE');
#70 = PERSON_AND_ORGANIZATION ( #73, #141 ) ;
#71 = COORDINATED_UNIVERSAL_TIME_OFFSET ( 1, 0, .AHEAD. ) ;
#72 = FACE_BOUND ( 'NONE', #59, .T. ) ;
#73 = PERSON ( 'UNSPECIFIED', 'UNSPECIFIED', 'UNSPECIFIED', ('UNSPECIFIED'), ('UNSPECIFIED'), ('UNSPECIFIED') ) ;
#74 = CARTESIAN_POINT ( 'NONE',  ( 2.618611004132350143E-13, 2.499999999999995115, 75.00000000000000000 ) ) ;
#75 = DIRECTION ( 'NONE',  ( -4.275831445896958607E-31, -1.000000000000000000, -1.224646799147353207E-16 ) ) ;
#76 = PERSON_AND_ORGANIZATION ( #73, #141 ) ;
#77 = ORIENTED_EDGE ( 'NONE', *, *, #181, .T. ) ;
#78 = APPROVAL ( #162, 'UNSPECIFIED' ) ;
#79 = CARTESIAN_POINT ( 'NONE',  ( -5.986164024255741874E-31, 2.099663695726600651E-32, -1.714505518806294391E-16 ) ) ;
#80 = EDGE_LOOP ( 'NONE', ( #95 ) ) ;
#81 = DIRECTION ( 'NONE',  ( 0.0000000000000000000, 1.000000000000000000, 0.0000000000000000000 ) ) ;
#82 = CARTESIAN_POINT ( 'NONE',  ( 2.601153597438134034E-13, -9.123618653647779582E-15, 74.49999999999998579 ) ) ;
#83 = CARTESIAN_POINT ( 'NONE',  ( -1.197232804851148375E-30, 4.199327391453201302E-32, -3.429011037612588783E-16 ) ) ;
#84 = VERTEX_POINT ( 'NONE', #3 ) ;
#85 = EDGE_CURVE ( 'NONE', #123, #123, #187, .T. ) ;
#86 = CLOSED_SHELL ( 'NONE', ( #189, #196, #49, #143 ) ) ;
#87 = CALENDAR_DATE ( 2021, 12, 11 ) ;
#88 = PERSON_AND_ORGANIZATION_ROLE ( 'creator' ) ;
#89 = DIRECTION ( 'NONE',  ( 0.0000000000000000000, 1.000000000000000000, 0.0000000000000000000 ) ) ;
#90 = PLANE ( 'NONE',  #191 ) ;
#91 = CALENDAR_DATE ( 2021, 12, 11 ) ;
#92 = DATE_AND_TIME ( #87, #47 ) ;
#93 = ADVANCED_FACE ( 'NONE', ( #135 ), #140, .T. ) ;
#94 = EDGE_LOOP ( 'NONE', ( #188 ) ) ;
#95 = ORIENTED_EDGE ( 'NONE', *, *, #85, .F. ) ;
#96 = FACE_OUTER_BOUND ( 'NONE', #214, .T. ) ;
#97 = AXIS2_PLACEMENT_3D ( 'NONE', #79, #56, #67 ) ;
#98 = DIRECTION ( 'NONE',  ( -3.491481338843133355E-15, 1.224646799147353207E-16, -1.000000000000000000 ) ) ;
#99 = APPROVAL_DATE_TIME ( #121, #78 ) ;
#100 = CARTESIAN_POINT ( 'NONE',  ( 2.618611004132350143E-13, 1.874699728327311610E-32, 75.00000000000000000 ) ) ;
#101 = DIRECTION ( 'NONE',  ( -4.275831445896958607E-31, -1.000000000000000000, -1.224646799147353207E-16 ) ) ;
#102 = EDGE_CURVE ( 'NONE', #84, #84, #168, .T. ) ;
#103 = LOCAL_TIME ( 9, 11, 23.00000000000000000, #71 ) ;
#104 = PRODUCT_DEFINITION_SHAPE ( 'NONE', 'NONE',  #53 ) ;
#105 = PRODUCT ( '57048', '57048', '', ( #184 ) ) ;
#106 = PERSON_AND_ORGANIZATION ( #73, #141 ) ;
#107 = VERTEX_POINT ( 'NONE', #11 ) ;
#108 = DIRECTION ( 'NONE',  ( -3.491481338843133355E-15, 1.224646799147353207E-16, -1.000000000000000000 ) ) ;
#109 = EDGE_CURVE ( 'NONE', #57, #57, #157, .T. ) ;
#110 = CARTESIAN_POINT ( 'NONE',  ( 0.0000000000000000000, 0.0000000000000000000, 0.0000000000000000000 ) ) ;
#111 = EDGE_LOOP ( 'NONE', ( #139 ) ) ;
#112 =( LENGTH_UNIT ( ) NAMED_UNIT ( * ) SI_UNIT ( .MILLI., .METRE. ) );
#113 = ORIENTED_EDGE ( 'NONE', *, *, #102, .T. ) ;
#114 = DATE_AND_TIME ( #91, #5 ) ;
#115 = EDGE_LOOP ( 'NONE', ( #186 ) ) ;
#116 = CC_DESIGN_APPROVAL ( #17, ( #53 ) ) ;
#117 = DIRECTION ( 'NONE',  ( 4.275831445896959482E-31, 1.000000000000000000, 1.224646799147353207E-16 ) ) ;
#118 = EDGE_LOOP ( 'NONE', ( #172 ) ) ;
#119 = AXIS2_PLACEMENT_3D ( 'NONE', #61, #42, #170 ) ;
#120 = DIRECTION ( 'NONE',  ( 4.275831445896958607E-31, 1.000000000000000000, 1.224646799147353207E-16 ) ) ;
#121 = DATE_AND_TIME ( #204, #32 ) ;
#122 = CC_DESIGN_DATE_AND_TIME_ASSIGNMENT ( #221, #195, ( #34 ) ) ;
#123 = VERTEX_POINT ( 'NONE', #4 ) ;
#124 = DESIGN_CONTEXT ( 'detailed design', #43, 'design' ) ;
#125 = COORDINATED_UNIVERSAL_TIME_OFFSET ( 1, 0, .AHEAD. ) ;
#126 = APPLICATION_PROTOCOL_DEFINITION ( 'international standard', 'config_control_design', 1994, #43 ) ;
#127 = PLANE ( 'NONE',  #60 ) ;
#128 = VERTEX_POINT ( 'NONE', #27 ) ;
#129 = FACE_OUTER_BOUND ( 'NONE', #174, .T. ) ;
#130 = AXIS2_PLACEMENT_3D ( 'NONE', #206, #15, #46 ) ;
#131 = EDGE_LOOP ( 'NONE', ( #155 ) ) ;
#132 = APPLICATION_PROTOCOL_DEFINITION ( 'international standard', 'config_control_design', 1994, #144 ) ;
#133 = ADVANCED_FACE ( 'NONE', ( #220, #203 ), #44, .T. ) ;
#134 = PRODUCT_DEFINITION_FORMATION_WITH_SPECIFIED_SOURCE ( 'ANY', '', #105, .NOT_KNOWN. ) ;
#135 = FACE_OUTER_BOUND ( 'NONE', #28, .T. ) ;
#136 = PERSON_AND_ORGANIZATION_ROLE ( 'classification_officer' ) ;
#137 = FACE_OUTER_BOUND ( 'NONE', #25, .T. ) ;
#138 = CALENDAR_DATE ( 2021, 12, 11 ) ;
#139 = ORIENTED_EDGE ( 'NONE', *, *, #148, .F. ) ;
#140 = PLANE ( 'NONE',  #97 ) ;
#141 = ORGANIZATION ( 'UNSPECIFIED', 'UNSPECIFIED', '' ) ;
#142 = PERSON_AND_ORGANIZATION ( #73, #141 ) ;
#143 = ADVANCED_FACE ( 'NONE', ( #96 ), #161, .F. ) ;
#144 = APPLICATION_CONTEXT ( 'configuration controlled 3d designs of mechanical parts and assemblies' ) ;
#145 = CIRCLE ( 'NONE', #68, 3.000000000000000444 ) ;
#146 = ADVANCED_BREP_SHAPE_REPRESENTATION ( '57048', ( #222, #152, #119 ), #180 ) ;
#147 = APPROVAL_STATUS ( 'not_yet_approved' ) ;
#148 = EDGE_CURVE ( 'NONE', #128, #128, #13, .T. ) ;
#149 = CALENDAR_DATE ( 2021, 12, 11 ) ;
#150 = DIRECTION ( 'NONE',  ( -3.491481338843133355E-15, 1.224646799147353207E-16, -1.000000000000000000 ) ) ;
#151 = DIRECTION ( 'NONE',  ( 4.172848212839010723E-31, 1.000000000000000000, 1.264902534566421922E-16 ) ) ;
#152 = MANIFOLD_SOLID_BREP ( 'Corps-Déplacer/Copier1[2]', #209 ) ;
#153 = PERSON_AND_ORGANIZATION_ROLE ( 'design_supplier' ) ;
#154 = APPROVAL_PERSON_ORGANIZATION ( #21, #17, #41 ) ;
#155 = ORIENTED_EDGE ( 'NONE', *, *, #148, .T. ) ;
#156 = DIRECTION ( 'NONE',  ( -3.491481338843133355E-15, 1.224646799147353207E-16, -1.000000000000000000 ) ) ;
#157 = CIRCLE ( 'NONE', #51, 2.500000000000004441 ) ;
#158 = CARTESIAN_POINT ( 'NONE',  ( 6.982962677686266711E-14, 2.249639673992782854E-32, 20.00000000000000000 ) ) ;
#159 = ADVANCED_FACE ( 'NONE', ( #23, #72 ), #171, .T. ) ;
#160 = DIRECTION ( 'NONE',  ( -3.491481338843133355E-15, 1.224646799147353207E-16, -1.000000000000000000 ) ) ;
#161 = PLANE ( 'NONE',  #26 ) ;
#162 = APPROVAL_STATUS ( 'not_yet_approved' ) ;
#163 = CC_DESIGN_PERSON_AND_ORGANIZATION_ASSIGNMENT ( #183, #55, ( #105 ) ) ;
#164 = AXIS2_PLACEMENT_3D ( 'NONE', #39, #108, #45 ) ;
#165 = EDGE_CURVE ( 'NONE', #107, #107, #145, .T. ) ;
#166 = CIRCLE ( 'NONE', #207, 3.000000000000000000 ) ;
#167 = CC_DESIGN_DATE_AND_TIME_ASSIGNMENT ( #92, #173, ( #53 ) ) ;
#168 = CIRCLE ( 'NONE', #198, 2.799999999999999822 ) ;
#169 = SECURITY_CLASSIFICATION_LEVEL ( 'unclassified' ) ;
#170 = DIRECTION ( 'NONE',  ( 1.000000000000000000, 0.0000000000000000000, 0.0000000000000000000 ) ) ;
#171 = CONICAL_SURFACE ( 'NONE', #48, 2.799999999999999822, 0.7853981633974485010 ) ;
#172 = ORIENTED_EDGE ( 'NONE', *, *, #85, .T. ) ;
#173 = DATE_TIME_ROLE ( 'creation_date' ) ;
#174 = EDGE_LOOP ( 'NONE', ( #223 ) ) ;
#175 = CARTESIAN_POINT ( 'NONE',  ( 6.982962677686266711E-14, 2.249639673992782854E-32, 20.00000000000000000 ) ) ;
#176 = CARTESIAN_POINT ( 'NONE',  ( 6.982962677686266711E-14, -2.449293598294706513E-15, 20.00000000000000000 ) ) ;
#177 = COORDINATED_UNIVERSAL_TIME_OFFSET ( 1, 0, .AHEAD. ) ;
#178 = ORIENTED_EDGE ( 'NONE', *, *, #109, .F. ) ;
#179 = CONICAL_SURFACE ( 'NONE', #19, 2.999999999999997780, 0.7853981633974275178 ) ;
#180 =( GEOMETRIC_REPRESENTATION_CONTEXT ( 3 ) GLOBAL_UNCERTAINTY_ASSIGNED_CONTEXT ( ( #69 ) ) GLOBAL_UNIT_ASSIGNED_CONTEXT ( ( #112, #38, #212 ) ) REPRESENTATION_CONTEXT ( 'NONE', 'WORKASPACE' ) );
#181 = EDGE_CURVE ( 'NONE', #36, #36, #166, .T. ) ;
#182 = APPROVAL_PERSON_ORGANIZATION ( #70, #40, #6 ) ;
#183 = PERSON_AND_ORGANIZATION ( #73, #141 ) ;
#184 = MECHANICAL_CONTEXT ( 'NONE', #144, 'mechanical' ) ;
#185 = DIRECTION ( 'NONE',  ( 4.275831445896958607E-31, 1.000000000000000000, 1.224646799147353207E-16 ) ) ;
#186 = ORIENTED_EDGE ( 'NONE', *, *, #109, .T. ) ;
#187 = CIRCLE ( 'NONE', #164, 2.999999999999997780 ) ;
#188 = ORIENTED_EDGE ( 'NONE', *, *, #181, .F. ) ;
#189 = ADVANCED_FACE ( 'NONE', ( #129 ), #127, .F. ) ;
#190 = DIRECTION ( 'NONE',  ( -3.491481338843133355E-15, 1.224646799147353207E-16, -1.000000000000000000 ) ) ;
#191 = AXIS2_PLACEMENT_3D ( 'NONE', #175, #33, #101 ) ;
#192 = CC_DESIGN_SECURITY_CLASSIFICATION ( #34, ( #134 ) ) ;
#193 = CC_DESIGN_PERSON_AND_ORGANIZATION_ASSIGNMENT ( #9, #35, ( #134 ) ) ;
#194 = CARTESIAN_POINT ( 'NONE',  ( 0.0000000000000000000, 0.0000000000000000000, 0.0000000000000000000 ) ) ;
#195 = DATE_TIME_ROLE ( 'classification_date' ) ;
#196 = ADVANCED_FACE ( 'NONE', ( #64, #137 ), #30, .T. ) ;
#197 = FACE_OUTER_BOUND ( 'NONE', #111, .T. ) ;
#198 = AXIS2_PLACEMENT_3D ( 'NONE', #83, #31, #120 ) ;
#199 = DIRECTION ( 'NONE',  ( 3.491481338843133355E-15, -1.224646799147353207E-16, 1.000000000000000000 ) ) ;
#200 = APPROVAL_STATUS ( 'not_yet_approved' ) ;
#201 = ORIENTED_EDGE ( 'NONE', *, *, #102, .F. ) ;
#202 = APPROVAL_PERSON_ORGANIZATION ( #142, #78, #65 ) ;
#203 = FACE_OUTER_BOUND ( 'NONE', #94, .T. ) ;
#204 = CALENDAR_DATE ( 2021, 12, 11 ) ;
#205 = DIRECTION ( 'NONE',  ( 4.275831445896958607E-31, 1.000000000000000000, 1.224646799147353207E-16 ) ) ;
#206 = CARTESIAN_POINT ( 'NONE',  ( 6.982962677686266711E-14, -2.449293598294706513E-15, 20.00000000000000000 ) ) ;
#207 = AXIS2_PLACEMENT_3D ( 'NONE', #12, #150, #151 ) ;
#208 = PRODUCT_RELATED_PRODUCT_CATEGORY ( 'detail', '', ( #105 ) ) ;
#209 = CLOSED_SHELL ( 'NONE', ( #93, #159, #133, #218 ) ) ;
#210 = DATE_AND_TIME ( #149, #103 ) ;
#211 = CC_DESIGN_PERSON_AND_ORGANIZATION_ASSIGNMENT ( #8, #136, ( #34 ) ) ;
#212 =( NAMED_UNIT ( * ) SI_UNIT ( $, .STERADIAN. ) SOLID_ANGLE_UNIT ( ) );
#213 = DIRECTION ( 'NONE',  ( 0.0000000000000000000, 1.000000000000000000, 0.0000000000000000000 ) ) ;
#214 = EDGE_LOOP ( 'NONE', ( #178 ) ) ;
#215 = AXIS2_PLACEMENT_3D ( 'NONE', #110, #98, #185 ) ;
#216 = CARTESIAN_POINT ( 'NONE',  ( 6.982962677686267697E-16, 3.000000000000000000, 0.2000000000000000389 ) ) ;
#217 = COORDINATED_UNIVERSAL_TIME_OFFSET ( 1, 0, .AHEAD. ) ;
#218 = ADVANCED_FACE ( 'NONE', ( #197 ), #90, .T. ) ;
#219 = EDGE_LOOP ( 'NONE', ( #77 ) ) ;
#220 = FACE_OUTER_BOUND ( 'NONE', #131, .T. ) ;
#221 = DATE_AND_TIME ( #138, #16 ) ;
#222 = MANIFOLD_SOLID_BREP ( 'Corps-Déplacer/Copier1[1]', #86 ) ;
#223 = ORIENTED_EDGE ( 'NONE', *, *, #165, .T. ) ;
ENDSEC;
END-ISO-10303-21;
