ISO-10303-21;
HEADER;
FILE_DESCRIPTION (( 'STEP AP203' ),
    '1' );
FILE_NAME ('57047.step',
    '2021-11-12T08:11:22',
    ( '' ),
    ( '' ),
    'SwSTEP 2.0',
    'SolidWorks 2019',
    '' );
FILE_SCHEMA (( 'CONFIG_CONTROL_DESIGN' ));
ENDSEC;

DATA;
#1 = COORDINATED_UNIVERSAL_TIME_OFFSET ( 1, 0, .AHEAD. ) ;
#2 = VERTEX_POINT ( 'NONE', #37 ) ;
#3 = COORDINATED_UNIVERSAL_TIME_OFFSET ( 1, 0, .AHEAD. ) ;
#4 = ADVANCED_FACE ( 'NONE', ( #43, #113 ), #180, .T. ) ;
#5 = DATE_TIME_ROLE ( 'classification_date' ) ;
#6 = PERSON_AND_ORGANIZATION_ROLE ( 'design_owner' ) ;
#7 = ORIENTED_EDGE ( 'NONE', *, *, #177, .F. ) ;
#8 = CONICAL_SURFACE ( 'NONE', #136, 2.499999999999995559, 0.7853981633974518317 ) ;
#9 = EDGE_LOOP ( 'NONE', ( #191 ) ) ;
#10 = EDGE_CURVE ( 'NONE', #2, #2, #55, .T. ) ;
#11 = EDGE_LOOP ( 'NONE', ( #213 ) ) ;
#12 = CLOSED_SHELL ( 'NONE', ( #124, #4, #19, #163 ) ) ;
#13 = PLANE ( 'NONE',  #109 ) ;
#14 = FACE_OUTER_BOUND ( 'NONE', #75, .T. ) ;
#15 = DIRECTION ( 'NONE',  ( 4.275831445896958607E-31, 1.000000000000000000, 1.224646799147353207E-16 ) ) ;
#16 = CARTESIAN_POINT ( 'NONE',  ( 0.0000000000000000000, 0.0000000000000000000, 0.0000000000000000000 ) ) ;
#17 = CC_DESIGN_APPROVAL ( #107, ( #146 ) ) ;
#18 = PERSON_AND_ORGANIZATION ( #133, #25 ) ;
#19 = ADVANCED_FACE ( 'NONE', ( #215, #44 ), #8, .T. ) ;
#20 = DATE_AND_TIME ( #71, #208 ) ;
#21 = DATE_AND_TIME ( #90, #179 ) ;
#22 = DIRECTION ( 'NONE',  ( -3.491481338843133355E-15, 1.224646799147353207E-16, -1.000000000000000000 ) ) ;
#23 = EDGE_LOOP ( 'NONE', ( #26 ) ) ;
#24 = AXIS2_PLACEMENT_3D ( 'NONE', #135, #182, #119 ) ;
#25 = ORGANIZATION ( 'UNSPECIFIED', 'UNSPECIFIED', '' ) ;
#26 = ORIENTED_EDGE ( 'NONE', *, *, #99, .F. ) ;
#27 = APPLICATION_CONTEXT ( 'configuration controlled 3d designs of mechanical parts and assemblies' ) ;
#28 = CC_DESIGN_DATE_AND_TIME_ASSIGNMENT ( #210, #108, ( #146 ) ) ;
#29 = FACE_BOUND ( 'NONE', #11, .T. ) ;
#30 = CARTESIAN_POINT ( 'NONE',  ( 6.284666409917640040E-14, 1.874699728327318726E-32, 18.00000000000000000 ) ) ;
#31 = DIRECTION ( 'NONE',  ( -3.491481338843133355E-15, 1.224646799147353207E-16, -1.000000000000000000 ) ) ;
#32 = CARTESIAN_POINT ( 'NONE',  ( 5.237222008264689186E-16, -1.836970198721026051E-17, 0.1499999999999996891 ) ) ;
#33 = CARTESIAN_POINT ( 'NONE',  ( 6.284666409917640040E-14, 1.874699728327318726E-32, 18.00000000000000000 ) ) ;
#34 = ADVANCED_BREP_SHAPE_REPRESENTATION ( '57047', ( #175, #102, #223 ), #68 ) ;
#35 = AXIS2_PLACEMENT_3D ( 'NONE', #46, #31, #138 ) ;
#36 = FACE_OUTER_BOUND ( 'NONE', #131, .T. ) ;
#37 = CARTESIAN_POINT ( 'NONE',  ( 6.284666409917640040E-14, 2.499999999999997780, 18.00000000000000000 ) ) ;
#38 = APPROVAL_STATUS ( 'not_yet_approved' ) ;
#39 = PERSON_AND_ORGANIZATION ( #133, #25 ) ;
#40 = ADVANCED_FACE ( 'NONE', ( #116, #167 ), #197, .T. ) ;
#41 = CIRCLE ( 'NONE', #178, 2.350000000000000089 ) ;
#42 = CC_DESIGN_PERSON_AND_ORGANIZATION_ASSIGNMENT ( #155, #140, ( #152 ) ) ;
#43 = FACE_OUTER_BOUND ( 'NONE', #92, .T. ) ;
#44 = FACE_OUTER_BOUND ( 'NONE', #195, .T. ) ;
#45 = PLANE ( 'NONE',  #156 ) ;
#46 = CARTESIAN_POINT ( 'NONE',  ( 2.094888803305880013E-13, 1.499759782661845565E-32, 60.00000000000000000 ) ) ;
#47 = PLANE ( 'NONE',  #79 ) ;
#48 = DIRECTION ( 'NONE',  ( 0.0000000000000000000, 1.000000000000000000, 0.0000000000000000000 ) ) ;
#49 = EDGE_CURVE ( 'NONE', #85, #85, #219, .T. ) ;
#50 = SECURITY_CLASSIFICATION_LEVEL ( 'unclassified' ) ;
#51 = CARTESIAN_POINT ( 'NONE',  ( 2.094888803305879761E-13, 1.999999999999991340, 59.99999999999999289 ) ) ;
#52 = CIRCLE ( 'NONE', #58, 2.500000000000000000 ) ;
#53 = PERSON_AND_ORGANIZATION_ROLE ( 'design_supplier' ) ;
#54 = CALENDAR_DATE ( 2021, 12, 11 ) ;
#55 = CIRCLE ( 'NONE', #76, 2.500000000000000000 ) ;
#56 = LOCAL_TIME ( 9, 11, 22.00000000000000000, #1 ) ;
#57 = APPROVAL_ROLE ( '' ) ;
#58 = AXIS2_PLACEMENT_3D ( 'NONE', #80, #149, #216 ) ;
#59 = ADVANCED_FACE ( 'NONE', ( #101 ), #45, .T. ) ;
#60 = ORIENTED_EDGE ( 'NONE', *, *, #142, .F. ) ;
#61 = DIRECTION ( 'NONE',  ( -3.491481338843133355E-15, 1.224646799147353207E-16, -1.000000000000000000 ) ) ;
#62 = DIRECTION ( 'NONE',  ( 3.491481338843133355E-15, -1.224646799147353207E-16, 1.000000000000000000 ) ) ;
#63 = DIRECTION ( 'NONE',  ( 0.0000000000000000000, 1.000000000000000000, 0.0000000000000000000 ) ) ;
#64 = DIRECTION ( 'NONE',  ( 4.275831445896958607E-31, 1.000000000000000000, 1.224646799147352961E-16 ) ) ;
#65 = CC_DESIGN_PERSON_AND_ORGANIZATION_ASSIGNMENT ( #39, #190, ( #146 ) ) ;
#66 = DIRECTION ( 'NONE',  ( 1.000000000000000000, 0.0000000000000000000, 0.0000000000000000000 ) ) ;
#67 =( NAMED_UNIT ( * ) PLANE_ANGLE_UNIT ( ) SI_UNIT ( $, .RADIAN. ) );
#68 =( GEOMETRIC_REPRESENTATION_CONTEXT ( 3 ) GLOBAL_UNCERTAINTY_ASSIGNED_CONTEXT ( ( #144 ) ) GLOBAL_UNIT_ASSIGNED_CONTEXT ( ( #172, #67, #170 ) ) REPRESENTATION_CONTEXT ( 'NONE', 'WORKASPACE' ) );
#69 = CARTESIAN_POINT ( 'NONE',  ( 5.237222008264699047E-16, 2.500000000000000000, 0.1499999999999999944 ) ) ;
#70 = PRODUCT_DEFINITION_SHAPE ( 'NONE', 'NONE',  #146 ) ;
#71 = CALENDAR_DATE ( 2021, 12, 11 ) ;
#72 = DATE_AND_TIME ( #54, #56 ) ;
#73 = AXIS2_PLACEMENT_3D ( 'NONE', #32, #137, #81 ) ;
#74 = PRODUCT_RELATED_PRODUCT_CATEGORY ( 'detail', '', ( #157 ) ) ;
#75 = EDGE_LOOP ( 'NONE', ( #96 ) ) ;
#76 = AXIS2_PLACEMENT_3D ( 'NONE', #150, #117, #48 ) ;
#77 = ORIENTED_EDGE ( 'NONE', *, *, #142, .T. ) ;
#78 = EDGE_LOOP ( 'NONE', ( #60 ) ) ;
#79 = AXIS2_PLACEMENT_3D ( 'NONE', #203, #154, #15 ) ;
#80 = CARTESIAN_POINT ( 'NONE',  ( 6.284666409917640040E-14, -2.204364238465235428E-15, 18.00000000000000000 ) ) ;
#81 = DIRECTION ( 'NONE',  ( 4.237045877651918877E-31, 1.000000000000000000, 1.192622389734054877E-16 ) ) ;
#82 = EDGE_CURVE ( 'NONE', #218, #218, #41, .T. ) ;
#83 = DIRECTION ( 'NONE',  ( 3.491481338843133355E-15, -1.224646799147353207E-16, 1.000000000000000000 ) ) ;
#84 = APPROVAL_PERSON_ORGANIZATION ( #123, #186, #188 ) ;
#85 = VERTEX_POINT ( 'NONE', #51 ) ;
#86 = DIRECTION ( 'NONE',  ( -3.491481338843133355E-15, 1.224646799147353207E-16, -1.000000000000000000 ) ) ;
#87 = PERSON_AND_ORGANIZATION ( #133, #25 ) ;
#88 = VERTEX_POINT ( 'NONE', #69 ) ;
#89 = COORDINATED_UNIVERSAL_TIME_OFFSET ( 1, 0, .AHEAD. ) ;
#90 = CALENDAR_DATE ( 2021, 12, 11 ) ;
#91 = ADVANCED_FACE ( 'NONE', ( #185, #29 ), #130, .T. ) ;
#92 = EDGE_LOOP ( 'NONE', ( #94 ) ) ;
#93 = AXIS2_PLACEMENT_3D ( 'NONE', #16, #61, #151 ) ;
#94 = ORIENTED_EDGE ( 'NONE', *, *, #177, .T. ) ;
#95 = APPROVAL_PERSON_ORGANIZATION ( #87, #147, #202 ) ;
#96 = ORIENTED_EDGE ( 'NONE', *, *, #10, .T. ) ;
#97 = CIRCLE ( 'NONE', #73, 2.500000000000000000 ) ;
#98 = DIRECTION ( 'NONE',  ( -4.275831445896958607E-31, -1.000000000000000000, -1.224646799147352961E-16 ) ) ;
#99 = EDGE_CURVE ( 'NONE', #88, #88, #97, .T. ) ;
#100 = CARTESIAN_POINT ( 'NONE',  ( 2.077431396611664157E-13, -7.286648454926750781E-15, 59.50000000000000000 ) ) ;
#101 = FACE_OUTER_BOUND ( 'NONE', #78, .T. ) ;
#102 = MANIFOLD_SOLID_BREP ( 'Corps-Déplacer/Copier1[2]', #145 ) ;
#103 = CARTESIAN_POINT ( 'NONE',  ( 6.284666409917640040E-14, 2.499999999999997780, 18.00000000000000000 ) ) ;
#104 = DIRECTION ( 'NONE',  ( 0.0000000000000000000, 1.000000000000000000, 0.0000000000000000000 ) ) ;
#105 = COORDINATED_UNIVERSAL_TIME_OFFSET ( 1, 0, .AHEAD. ) ;
#106 = PERSON_AND_ORGANIZATION ( #133, #25 ) ;
#107 = APPROVAL ( #174, 'UNSPECIFIED' ) ;
#108 = DATE_TIME_ROLE ( 'creation_date' ) ;
#109 = AXIS2_PLACEMENT_3D ( 'NONE', #33, #62, #148 ) ;
#110 = CARTESIAN_POINT ( 'NONE',  ( 0.0000000000000000000, 0.0000000000000000000, 0.0000000000000000000 ) ) ;
#111 = AXIS2_PLACEMENT_3D ( 'NONE', #168, #221, #98 ) ;
#112 = PRODUCT_DEFINITION_FORMATION_WITH_SPECIFIED_SOURCE ( 'ANY', '', #157, .NOT_KNOWN. ) ;
#113 = FACE_OUTER_BOUND ( 'NONE', #128, .T. ) ;
#114 = CC_DESIGN_PERSON_AND_ORGANIZATION_ASSIGNMENT ( #18, #53, ( #112 ) ) ;
#115 = CARTESIAN_POINT ( 'NONE',  ( -1.004820389785785246E-30, 3.524435489255365378E-32, -2.877919977996279827E-16 ) ) ;
#116 = FACE_OUTER_BOUND ( 'NONE', #212, .T. ) ;
#117 = DIRECTION ( 'NONE',  ( -3.491481338843133355E-15, 1.224646799147353207E-16, -1.000000000000000000 ) ) ;
#118 = CARTESIAN_POINT ( 'NONE',  ( 0.0000000000000000000, 2.350000000000000089, 0.0000000000000000000 ) ) ;
#119 = DIRECTION ( 'NONE',  ( 0.0000000000000000000, 1.000000000000000000, 0.0000000000000000000 ) ) ;
#120 = CARTESIAN_POINT ( 'NONE',  ( 2.077431396611664157E-13, 2.499999999999988454, 59.50000000000000000 ) ) ;
#121 = APPROVAL_STATUS ( 'not_yet_approved' ) ;
#122 = MECHANICAL_CONTEXT ( 'NONE', #27, 'mechanical' ) ;
#123 = PERSON_AND_ORGANIZATION ( #133, #25 ) ;
#124 = ADVANCED_FACE ( 'NONE', ( #14 ), #13, .F. ) ;
#125 = PERSON_AND_ORGANIZATION_ROLE ( 'creator' ) ;
#126 = LOCAL_TIME ( 9, 11, 22.00000000000000000, #105 ) ;
#127 = COORDINATED_UNIVERSAL_TIME_OFFSET ( 1, 0, .AHEAD. ) ;
#128 = EDGE_LOOP ( 'NONE', ( #129 ) ) ;
#129 = ORIENTED_EDGE ( 'NONE', *, *, #10, .F. ) ;
#130 = CONICAL_SURFACE ( 'NONE', #111, 2.350000000000000089, 0.7853981633974481680 ) ;
#131 = EDGE_LOOP ( 'NONE', ( #162 ) ) ;
#132 = APPLICATION_CONTEXT ( 'configuration controlled 3d designs of mechanical parts and assemblies' ) ;
#133 = PERSON ( 'UNSPECIFIED', 'UNSPECIFIED', 'UNSPECIFIED', ('UNSPECIFIED'), ('UNSPECIFIED'), ('UNSPECIFIED') ) ;
#134 = CC_DESIGN_SECURITY_CLASSIFICATION ( #152, ( #112 ) ) ;
#135 = CARTESIAN_POINT ( 'NONE',  ( 2.094888803305879761E-13, -7.347880794884118356E-15, 59.99999999999999289 ) ) ;
#136 = AXIS2_PLACEMENT_3D ( 'NONE', #100, #217, #63 ) ;
#137 = DIRECTION ( 'NONE',  ( -3.491481338843133355E-15, 1.224646799147353207E-16, -1.000000000000000000 ) ) ;
#138 = DIRECTION ( 'NONE',  ( 4.275831445896958607E-31, 1.000000000000000000, 1.224646799147353207E-16 ) ) ;
#139 = CALENDAR_DATE ( 2021, 12, 11 ) ;
#140 = PERSON_AND_ORGANIZATION_ROLE ( 'classification_officer' ) ;
#141 = VERTEX_POINT ( 'NONE', #120 ) ;
#142 = EDGE_CURVE ( 'NONE', #205, #205, #52, .T. ) ;
#143 = CC_DESIGN_APPROVAL ( #186, ( #112 ) ) ;
#144 = UNCERTAINTY_MEASURE_WITH_UNIT (LENGTH_MEASURE( 1.000000000000000082E-05 ), #172, 'distance_accuracy_value', 'NONE');
#145 = CLOSED_SHELL ( 'NONE', ( #199, #91, #40, #59 ) ) ;
#146 = PRODUCT_DEFINITION ( 'UNKNOWN', '', #112, #193 ) ;
#147 = APPROVAL ( #121, 'UNSPECIFIED' ) ;
#148 = DIRECTION ( 'NONE',  ( -4.275831445896958607E-31, -1.000000000000000000, -1.224646799147353207E-16 ) ) ;
#149 = DIRECTION ( 'NONE',  ( -3.491481338843133355E-15, 1.224646799147353207E-16, -1.000000000000000000 ) ) ;
#150 = CARTESIAN_POINT ( 'NONE',  ( 6.284666409917640040E-14, -2.204364238465235428E-15, 18.00000000000000000 ) ) ;
#151 = DIRECTION ( 'NONE',  ( 4.275831445896958607E-31, 1.000000000000000000, 1.224646799147353207E-16 ) ) ;
#152 = SECURITY_CLASSIFICATION ( '', '', #50 ) ;
#153 = CARTESIAN_POINT ( 'NONE',  ( 0.0000000000000000000, 0.0000000000000000000, 0.0000000000000000000 ) ) ;
#154 = DIRECTION ( 'NONE',  ( -3.491481338843133355E-15, 1.224646799147353207E-16, -1.000000000000000000 ) ) ;
#155 = PERSON_AND_ORGANIZATION ( #133, #25 ) ;
#156 = AXIS2_PLACEMENT_3D ( 'NONE', #30, #83, #196 ) ;
#157 = PRODUCT ( '57047', '57047', '', ( #122 ) ) ;
#158 = PERSON_AND_ORGANIZATION ( #133, #25 ) ;
#159 = APPROVAL_DATE_TIME ( #187, #147 ) ;
#160 = AXIS2_PLACEMENT_3D ( 'NONE', #200, #86, #104 ) ;
#161 = APPLICATION_PROTOCOL_DEFINITION ( 'international standard', 'config_control_design', 1994, #132 ) ;
#162 = ORIENTED_EDGE ( 'NONE', *, *, #82, .T. ) ;
#163 = ADVANCED_FACE ( 'NONE', ( #198 ), #183, .F. ) ;
#164 = EDGE_LOOP ( 'NONE', ( #176 ) ) ;
#165 = CIRCLE ( 'NONE', #160, 2.499999999999995559 ) ;
#166 = DIRECTION ( 'NONE',  ( -3.491481338843133355E-15, 1.224646799147353207E-16, -1.000000000000000000 ) ) ;
#167 = FACE_OUTER_BOUND ( 'NONE', #23, .T. ) ;
#168 = CARTESIAN_POINT ( 'NONE',  ( -1.004820389785785246E-30, 3.524435489255365378E-32, -2.877919977996279827E-16 ) ) ;
#169 = APPLICATION_PROTOCOL_DEFINITION ( 'international standard', 'config_control_design', 1994, #27 ) ;
#170 =( NAMED_UNIT ( * ) SI_UNIT ( $, .STERADIAN. ) SOLID_ANGLE_UNIT ( ) );
#171 = CC_DESIGN_DATE_AND_TIME_ASSIGNMENT ( #72, #5, ( #152 ) ) ;
#172 =( LENGTH_UNIT ( ) NAMED_UNIT ( * ) SI_UNIT ( .MILLI., .METRE. ) );
#173 = AXIS2_PLACEMENT_3D ( 'NONE', #110, #22, #201 ) ;
#174 = APPROVAL_STATUS ( 'not_yet_approved' ) ;
#175 = MANIFOLD_SOLID_BREP ( 'Corps-Déplacer/Copier1[1]', #12 ) ;
#176 = ORIENTED_EDGE ( 'NONE', *, *, #49, .F. ) ;
#177 = EDGE_CURVE ( 'NONE', #141, #141, #165, .T. ) ;
#178 = AXIS2_PLACEMENT_3D ( 'NONE', #115, #166, #64 ) ;
#179 = LOCAL_TIME ( 9, 11, 22.00000000000000000, #127 ) ;
#180 = CYLINDRICAL_SURFACE ( 'NONE', #173, 2.499999999999997780 ) ;
#181 = CC_DESIGN_APPROVAL ( #147, ( #152 ) ) ;
#182 = DIRECTION ( 'NONE',  ( -3.491481338843133355E-15, 1.224646799147353207E-16, -1.000000000000000000 ) ) ;
#183 = PLANE ( 'NONE',  #35 ) ;
#184 = CC_DESIGN_PERSON_AND_ORGANIZATION_ASSIGNMENT ( #106, #6, ( #157 ) ) ;
#185 = FACE_OUTER_BOUND ( 'NONE', #9, .T. ) ;
#186 = APPROVAL ( #38, 'UNSPECIFIED' ) ;
#187 = DATE_AND_TIME ( #139, #194 ) ;
#188 = APPROVAL_ROLE ( '' ) ;
#189 = APPROVAL_DATE_TIME ( #21, #107 ) ;
#190 = PERSON_AND_ORGANIZATION_ROLE ( 'creator' ) ;
#191 = ORIENTED_EDGE ( 'NONE', *, *, #99, .T. ) ;
#192 = EDGE_LOOP ( 'NONE', ( #214 ) ) ;
#193 = DESIGN_CONTEXT ( 'detailed design', #132, 'design' ) ;
#194 = LOCAL_TIME ( 9, 11, 22.00000000000000000, #89 ) ;
#195 = EDGE_LOOP ( 'NONE', ( #7 ) ) ;
#196 = DIRECTION ( 'NONE',  ( -4.275831445896958607E-31, -1.000000000000000000, -1.224646799147353207E-16 ) ) ;
#197 = CYLINDRICAL_SURFACE ( 'NONE', #93, 2.500000000000000000 ) ;
#198 = FACE_OUTER_BOUND ( 'NONE', #164, .T. ) ;
#199 = ADVANCED_FACE ( 'NONE', ( #36 ), #47, .T. ) ;
#200 = CARTESIAN_POINT ( 'NONE',  ( 2.077431396611664157E-13, -7.286648454926750781E-15, 59.50000000000000000 ) ) ;
#201 = DIRECTION ( 'NONE',  ( 4.275831445896959482E-31, 1.000000000000000000, 1.224646799147353454E-16 ) ) ;
#202 = APPROVAL_ROLE ( '' ) ;
#203 = CARTESIAN_POINT ( 'NONE',  ( -5.024101948928926231E-31, 1.762217744627682689E-32, -1.438959988998139914E-16 ) ) ;
#204 = APPROVAL_DATE_TIME ( #20, #186 ) ;
#205 = VERTEX_POINT ( 'NONE', #103 ) ;
#206 = CALENDAR_DATE ( 2021, 12, 11 ) ;
#207 = PERSON_AND_ORGANIZATION ( #133, #25 ) ;
#208 = LOCAL_TIME ( 9, 11, 22.00000000000000000, #3 ) ;
#209 = SHAPE_DEFINITION_REPRESENTATION ( #70, #34 ) ;
#210 = DATE_AND_TIME ( #206, #126 ) ;
#211 = CC_DESIGN_PERSON_AND_ORGANIZATION_ASSIGNMENT ( #207, #125, ( #112 ) ) ;
#212 = EDGE_LOOP ( 'NONE', ( #77 ) ) ;
#213 = ORIENTED_EDGE ( 'NONE', *, *, #82, .F. ) ;
#214 = ORIENTED_EDGE ( 'NONE', *, *, #49, .T. ) ;
#215 = FACE_BOUND ( 'NONE', #192, .T. ) ;
#216 = DIRECTION ( 'NONE',  ( 0.0000000000000000000, 1.000000000000000000, 0.0000000000000000000 ) ) ;
#217 = DIRECTION ( 'NONE',  ( -3.491481338843133355E-15, 1.224646799147353207E-16, -1.000000000000000000 ) ) ;
#218 = VERTEX_POINT ( 'NONE', #118 ) ;
#219 = CIRCLE ( 'NONE', #24, 1.999999999999998668 ) ;
#220 = APPROVAL_PERSON_ORGANIZATION ( #158, #107, #57 ) ;
#221 = DIRECTION ( 'NONE',  ( 3.491481338843133355E-15, -1.224646799147353207E-16, 1.000000000000000000 ) ) ;
#222 = DIRECTION ( 'NONE',  ( 0.0000000000000000000, 0.0000000000000000000, 1.000000000000000000 ) ) ;
#223 = AXIS2_PLACEMENT_3D ( 'NONE', #153, #222, #66 ) ;
ENDSEC;
END-ISO-10303-21;
