ISO-10303-21;
HEADER;
FILE_DESCRIPTION (( 'STEP AP203' ),
    '1' );
FILE_NAME ('57046.step',
    '2021-11-12T08:11:22',
    ( '' ),
    ( '' ),
    'SwSTEP 2.0',
    'SolidWorks 2019',
    '' );
FILE_SCHEMA (( 'CONFIG_CONTROL_DESIGN' ));
ENDSEC;

DATA;
#1 = VERTEX_POINT ( 'NONE', #145 ) ;
#2 = CALENDAR_DATE ( 2021, 12, 11 ) ;
#3 = DIRECTION ( 'NONE',  ( 0.0000000000000000000, 0.0000000000000000000, 1.000000000000000000 ) ) ;
#4 = LOCAL_TIME ( 9, 11, 22.00000000000000000, #70 ) ;
#5 = CIRCLE ( 'NONE', #162, 2.000000000000000000 ) ;
#6 = CC_DESIGN_PERSON_AND_ORGANIZATION_ASSIGNMENT ( #222, #144, ( #183 ) ) ;
#7 = DATE_AND_TIME ( #94, #139 ) ;
#8 = ADVANCED_FACE ( 'NONE', ( #63, #117 ), #195, .T. ) ;
#9 = DIRECTION ( 'NONE',  ( 4.275831445896958607E-31, 1.000000000000000000, 1.224646799147352961E-16 ) ) ;
#10 = FACE_OUTER_BOUND ( 'NONE', #52, .T. ) ;
#11 = CARTESIAN_POINT ( 'NONE',  ( 1.731774744066194902E-13, -6.074248123770874235E-15, 49.60000000000001563 ) ) ;
#12 = CYLINDRICAL_SURFACE ( 'NONE', #158, 2.000000000000000000 ) ;
#13 = CC_DESIGN_APPROVAL ( #20, ( #69 ) ) ;
#14 = FACE_OUTER_BOUND ( 'NONE', #23, .T. ) ;
#15 = AXIS2_PLACEMENT_3D ( 'NONE', #24, #68, #22 ) ;
#16 = CARTESIAN_POINT ( 'NONE',  ( 5.586370142149013368E-14, 1.999999999999997780, 16.00000000000000000 ) ) ;
#17 = PERSON_AND_ORGANIZATION_ROLE ( 'creator' ) ;
#18 = APPROVAL_ROLE ( '' ) ;
#19 = CC_DESIGN_APPROVAL ( #48, ( #183 ) ) ;
#20 = APPROVAL ( #124, 'UNSPECIFIED' ) ;
#21 = AXIS2_PLACEMENT_3D ( 'NONE', #130, #49, #118 ) ;
#22 = DIRECTION ( 'NONE',  ( 4.275831445896958607E-31, 1.000000000000000000, 1.224646799147353207E-16 ) ) ;
#23 = EDGE_LOOP ( 'NONE', ( #46 ) ) ;
#24 = CARTESIAN_POINT ( 'NONE',  ( 1.745740669421566678E-13, 1.199807826129484718E-32, 50.00000000000000000 ) ) ;
#25 = CARTESIAN_POINT ( 'NONE',  ( 5.586370142149013368E-14, 1.499759782661854324E-32, 16.00000000000000000 ) ) ;
#26 = FACE_OUTER_BOUND ( 'NONE', #150, .T. ) ;
#27 = MANIFOLD_SOLID_BREP ( 'Corps-Déplacer/Copier1[2]', #132 ) ;
#28 = EDGE_CURVE ( 'NONE', #176, #176, #5, .T. ) ;
#29 = AXIS2_PLACEMENT_3D ( 'NONE', #44, #163, #74 ) ;
#30 = CALENDAR_DATE ( 2021, 12, 11 ) ;
#31 = CC_DESIGN_SECURITY_CLASSIFICATION ( #183, ( #42 ) ) ;
#32 = AXIS2_PLACEMENT_3D ( 'NONE', #137, #200, #202 ) ;
#33 = APPROVAL_DATE_TIME ( #220, #87 ) ;
#34 = CARTESIAN_POINT ( 'NONE',  ( 1.745740669421566678E-13, 1.600000000000004086, 50.00000000000000000 ) ) ;
#35 = PERSON ( 'UNSPECIFIED', 'UNSPECIFIED', 'UNSPECIFIED', ('UNSPECIFIED'), ('UNSPECIFIED'), ('UNSPECIFIED') ) ;
#36 = MANIFOLD_SOLID_BREP ( 'Corps-Déplacer/Copier1[1]', #167 ) ;
#37 = VERTEX_POINT ( 'NONE', #16 ) ;
#38 = DATE_AND_TIME ( #30, #95 ) ;
#39 =( NAMED_UNIT ( * ) SI_UNIT ( $, .STERADIAN. ) SOLID_ANGLE_UNIT ( ) );
#40 =( LENGTH_UNIT ( ) NAMED_UNIT ( * ) SI_UNIT ( .MILLI., .METRE. ) );
#41 = DATE_TIME_ROLE ( 'creation_date' ) ;
#42 = PRODUCT_DEFINITION_FORMATION_WITH_SPECIFIED_SOURCE ( 'ANY', '', #217, .NOT_KNOWN. ) ;
#43 = CIRCLE ( 'NONE', #104, 1.999999999999997335 ) ;
#44 = CARTESIAN_POINT ( 'NONE',  ( 1.731774744066194902E-13, -6.074248123770874235E-15, 49.60000000000001563 ) ) ;
#45 = EDGE_LOOP ( 'NONE', ( #211 ) ) ;
#46 = ORIENTED_EDGE ( 'NONE', *, *, #99, .F. ) ;
#47 = DIRECTION ( 'NONE',  ( -3.491481338843133355E-15, 1.224646799147353207E-16, -1.000000000000000000 ) ) ;
#48 = APPROVAL ( #218, 'UNSPECIFIED' ) ;
#49 = DIRECTION ( 'NONE',  ( -3.491481338843133355E-15, 1.224646799147353207E-16, -1.000000000000000000 ) ) ;
#50 = ADVANCED_FACE ( 'NONE', ( #101 ), #185, .T. ) ;
#51 = ORIENTED_EDGE ( 'NONE', *, *, #99, .T. ) ;
#52 = EDGE_LOOP ( 'NONE', ( #64 ) ) ;
#53 = PERSON_AND_ORGANIZATION_ROLE ( 'creator' ) ;
#54 = AXIS2_PLACEMENT_3D ( 'NONE', #25, #164, #155 ) ;
#55 = PRODUCT_RELATED_PRODUCT_CATEGORY ( 'detail', '', ( #217 ) ) ;
#56 = APPROVAL_DATE_TIME ( #207, #48 ) ;
#57 = CC_DESIGN_DATE_AND_TIME_ASSIGNMENT ( #7, #41, ( #69 ) ) ;
#58 = COORDINATED_UNIVERSAL_TIME_OFFSET ( 1, 0, .AHEAD. ) ;
#59 = VERTEX_POINT ( 'NONE', #34 ) ;
#60 = VERTEX_POINT ( 'NONE', #123 ) ;
#61 = FACE_OUTER_BOUND ( 'NONE', #141, .T. ) ;
#62 = UNCERTAINTY_MEASURE_WITH_UNIT (LENGTH_MEASURE( 1.000000000000000082E-05 ), #40, 'distance_accuracy_value', 'NONE');
#63 = FACE_OUTER_BOUND ( 'NONE', #203, .T. ) ;
#64 = ORIENTED_EDGE ( 'NONE', *, *, #28, .T. ) ;
#65 = CARTESIAN_POINT ( 'NONE',  ( 5.586370142149013368E-14, -1.959434878635765131E-15, 16.00000000000000000 ) ) ;
#66 = CC_DESIGN_APPROVAL ( #87, ( #42 ) ) ;
#67 = CIRCLE ( 'NONE', #73, 1.850000000000000089 ) ;
#68 = DIRECTION ( 'NONE',  ( -3.491481338843133355E-15, 1.224646799147353207E-16, -1.000000000000000000 ) ) ;
#69 = PRODUCT_DEFINITION ( 'UNKNOWN', '', #42, #179 ) ;
#70 = COORDINATED_UNIVERSAL_TIME_OFFSET ( 1, 0, .AHEAD. ) ;
#71 = EDGE_LOOP ( 'NONE', ( #219 ) ) ;
#72 = ADVANCED_FACE ( 'NONE', ( #10, #133 ), #12, .T. ) ;
#73 = AXIS2_PLACEMENT_3D ( 'NONE', #186, #103, #9 ) ;
#74 = DIRECTION ( 'NONE',  ( 0.0000000000000000000, 1.000000000000000000, 0.0000000000000000000 ) ) ;
#75 = DIRECTION ( 'NONE',  ( 4.275831445896957731E-31, 1.000000000000000000, 1.224646799147353207E-16 ) ) ;
#76 = LOCAL_TIME ( 9, 11, 22.00000000000000000, #58 ) ;
#77 = DIRECTION ( 'NONE',  ( 1.000000000000000000, 0.0000000000000000000, 0.0000000000000000000 ) ) ;
#78 = AXIS2_PLACEMENT_3D ( 'NONE', #159, #143, #75 ) ;
#79 = COORDINATED_UNIVERSAL_TIME_OFFSET ( 1, 0, .AHEAD. ) ;
#80 = CC_DESIGN_DATE_AND_TIME_ASSIGNMENT ( #38, #173, ( #183 ) ) ;
#81 = CARTESIAN_POINT ( 'NONE',  ( -3.955144087454686142E-31, 1.387277798962218287E-32, -1.132798289211301550E-16 ) ) ;
#82 = ORIENTED_EDGE ( 'NONE', *, *, #28, .F. ) ;
#83 = DIRECTION ( 'NONE',  ( 3.491481338843133355E-15, -1.224646799147353207E-16, 1.000000000000000000 ) ) ;
#84 = DIRECTION ( 'NONE',  ( -3.491481338843133355E-15, 1.224646799147353207E-16, -1.000000000000000000 ) ) ;
#85 = DIRECTION ( 'NONE',  ( -4.275831445896959482E-31, -1.000000000000000000, -1.224646799147352961E-16 ) ) ;
#86 = ORIENTED_EDGE ( 'NONE', *, *, #138, .T. ) ;
#87 = APPROVAL ( #110, 'UNSPECIFIED' ) ;
#88 = ADVANCED_FACE ( 'NONE', ( #26 ), #135, .T. ) ;
#89 = PERSON_AND_ORGANIZATION_ROLE ( 'design_owner' ) ;
#90 = DIRECTION ( 'NONE',  ( 0.0000000000000000000, 1.000000000000000000, 0.0000000000000000000 ) ) ;
#91 = CYLINDRICAL_SURFACE ( 'NONE', #78, 1.999999999999998668 ) ;
#92 = PERSON_AND_ORGANIZATION ( #35, #188 ) ;
#93 = CARTESIAN_POINT ( 'NONE',  ( 0.0000000000000000000, 0.0000000000000000000, 0.0000000000000000000 ) ) ;
#94 = CALENDAR_DATE ( 2021, 12, 11 ) ;
#95 = LOCAL_TIME ( 9, 11, 22.00000000000000000, #105 ) ;
#96 = APPROVAL_DATE_TIME ( #108, #20 ) ;
#97 = CC_DESIGN_PERSON_AND_ORGANIZATION_ASSIGNMENT ( #146, #142, ( #42 ) ) ;
#98 = PERSON_AND_ORGANIZATION ( #35, #188 ) ;
#99 = EDGE_CURVE ( 'NONE', #60, #60, #43, .T. ) ;
#100 = CARTESIAN_POINT ( 'NONE',  ( 5.237222008264691158E-16, -1.836970198721026668E-17, 0.1499999999999997446 ) ) ;
#101 = FACE_OUTER_BOUND ( 'NONE', #45, .T. ) ;
#102 = ORIENTED_EDGE ( 'NONE', *, *, #138, .F. ) ;
#103 = DIRECTION ( 'NONE',  ( -3.491481338843133355E-15, 1.224646799147353207E-16, -1.000000000000000000 ) ) ;
#104 = AXIS2_PLACEMENT_3D ( 'NONE', #11, #84, #134 ) ;
#105 = COORDINATED_UNIVERSAL_TIME_OFFSET ( 1, 0, .AHEAD. ) ;
#106 = ADVANCED_FACE ( 'NONE', ( #198 ), #114, .F. ) ;
#107 = PERSON_AND_ORGANIZATION ( #35, #188 ) ;
#108 = DATE_AND_TIME ( #175, #76 ) ;
#109 =( GEOMETRIC_REPRESENTATION_CONTEXT ( 3 ) GLOBAL_UNCERTAINTY_ASSIGNED_CONTEXT ( ( #62 ) ) GLOBAL_UNIT_ASSIGNED_CONTEXT ( ( #40, #125, #39 ) ) REPRESENTATION_CONTEXT ( 'NONE', 'WORKASPACE' ) );
#110 = APPROVAL_STATUS ( 'not_yet_approved' ) ;
#111 = CC_DESIGN_PERSON_AND_ORGANIZATION_ASSIGNMENT ( #92, #17, ( #69 ) ) ;
#112 = FACE_BOUND ( 'NONE', #181, .T. ) ;
#113 = DIRECTION ( 'NONE',  ( 0.0000000000000000000, 1.000000000000000000, 0.0000000000000000000 ) ) ;
#114 = PLANE ( 'NONE',  #15 ) ;
#115 = CIRCLE ( 'NONE', #21, 1.600000000000010303 ) ;
#116 = ADVANCED_BREP_SHAPE_REPRESENTATION ( '57046', ( #36, #27, #177 ), #109 ) ;
#117 = FACE_BOUND ( 'NONE', #152, .T. ) ;
#118 = DIRECTION ( 'NONE',  ( 0.0000000000000000000, 1.000000000000000000, 0.0000000000000000000 ) ) ;
#119 = CC_DESIGN_PERSON_AND_ORGANIZATION_ASSIGNMENT ( #121, #53, ( #42 ) ) ;
#120 = ORIENTED_EDGE ( 'NONE', *, *, #174, .F. ) ;
#121 = PERSON_AND_ORGANIZATION ( #35, #188 ) ;
#122 = LOCAL_TIME ( 9, 11, 22.00000000000000000, #192 ) ;
#123 = CARTESIAN_POINT ( 'NONE',  ( 1.731774744066194902E-13, 1.999999999999991340, 49.60000000000001563 ) ) ;
#124 = APPROVAL_STATUS ( 'not_yet_approved' ) ;
#125 =( NAMED_UNIT ( * ) PLANE_ANGLE_UNIT ( ) SI_UNIT ( $, .RADIAN. ) );
#126 = APPROVAL_ROLE ( '' ) ;
#127 = CARTESIAN_POINT ( 'NONE',  ( 1.710569414459005214E-46, 1.850000000000000089, 0.0000000000000000000 ) ) ;
#128 = CARTESIAN_POINT ( 'NONE',  ( 5.586370142149013368E-14, 1.999999999999997780, 16.00000000000000000 ) ) ;
#129 = ADVANCED_FACE ( 'NONE', ( #61 ), #213, .F. ) ;
#130 = CARTESIAN_POINT ( 'NONE',  ( 1.745740669421566678E-13, -6.123233995736766085E-15, 50.00000000000000000 ) ) ;
#131 = APPROVAL_PERSON_ORGANIZATION ( #98, #87, #126 ) ;
#132 = CLOSED_SHELL ( 'NONE', ( #50, #8, #72, #88 ) ) ;
#133 = FACE_OUTER_BOUND ( 'NONE', #71, .T. ) ;
#134 = DIRECTION ( 'NONE',  ( 0.0000000000000000000, 1.000000000000000000, 0.0000000000000000000 ) ) ;
#135 = PLANE ( 'NONE',  #54 ) ;
#136 = APPROVAL_PERSON_ORGANIZATION ( #221, #20, #18 ) ;
#137 = CARTESIAN_POINT ( 'NONE',  ( 5.586370142149013368E-14, 1.499759782661854324E-32, 16.00000000000000000 ) ) ;
#138 = EDGE_CURVE ( 'NONE', #59, #59, #115, .T. ) ;
#139 = LOCAL_TIME ( 9, 11, 22.00000000000000000, #79 ) ;
#140 = APPLICATION_CONTEXT ( 'configuration controlled 3d designs of mechanical parts and assemblies' ) ;
#141 = EDGE_LOOP ( 'NONE', ( #165 ) ) ;
#142 = PERSON_AND_ORGANIZATION_ROLE ( 'design_supplier' ) ;
#143 = DIRECTION ( 'NONE',  ( -3.491481338843133355E-15, 1.224646799147353207E-16, -1.000000000000000000 ) ) ;
#144 = PERSON_AND_ORGANIZATION_ROLE ( 'classification_officer' ) ;
#145 = CARTESIAN_POINT ( 'NONE',  ( 5.237222008264699047E-16, 2.000000000000000000, 0.1499999999999999944 ) ) ;
#146 = PERSON_AND_ORGANIZATION ( #35, #188 ) ;
#147 = CARTESIAN_POINT ( 'NONE',  ( 5.586370142149013368E-14, -1.959434878635765131E-15, 16.00000000000000000 ) ) ;
#148 = AXIS2_PLACEMENT_3D ( 'NONE', #100, #196, #166 ) ;
#149 = APPLICATION_PROTOCOL_DEFINITION ( 'international standard', 'config_control_design', 1994, #184 ) ;
#150 = EDGE_LOOP ( 'NONE', ( #82 ) ) ;
#151 = DIRECTION ( 'NONE',  ( 4.275831445896958607E-31, 1.000000000000000000, 1.224646799147353207E-16 ) ) ;
#152 = EDGE_LOOP ( 'NONE', ( #120 ) ) ;
#153 = EDGE_LOOP ( 'NONE', ( #205 ) ) ;
#154 = AXIS2_PLACEMENT_3D ( 'NONE', #81, #199, #212 ) ;
#155 = DIRECTION ( 'NONE',  ( -4.275831445896958607E-31, -1.000000000000000000, -1.224646799147353207E-16 ) ) ;
#156 = CC_DESIGN_PERSON_AND_ORGANIZATION_ASSIGNMENT ( #107, #89, ( #217 ) ) ;
#157 = PERSON_AND_ORGANIZATION ( #35, #188 ) ;
#158 = AXIS2_PLACEMENT_3D ( 'NONE', #214, #180, #151 ) ;
#159 = CARTESIAN_POINT ( 'NONE',  ( 0.0000000000000000000, 0.0000000000000000000, 0.0000000000000000000 ) ) ;
#160 = APPLICATION_PROTOCOL_DEFINITION ( 'international standard', 'config_control_design', 1994, #140 ) ;
#161 = FACE_OUTER_BOUND ( 'NONE', #216, .T. ) ;
#162 = AXIS2_PLACEMENT_3D ( 'NONE', #65, #47, #113 ) ;
#163 = DIRECTION ( 'NONE',  ( -3.491481338843133355E-15, 1.224646799147353207E-16, -1.000000000000000000 ) ) ;
#164 = DIRECTION ( 'NONE',  ( 3.491481338843133355E-15, -1.224646799147353207E-16, 1.000000000000000000 ) ) ;
#165 = ORIENTED_EDGE ( 'NONE', *, *, #210, .T. ) ;
#166 = DIRECTION ( 'NONE',  ( 4.333342374871280669E-31, 1.000000000000000000, 1.219727444046192488E-16 ) ) ;
#167 = CLOSED_SHELL ( 'NONE', ( #129, #206, #197, #106 ) ) ;
#168 = ORIENTED_EDGE ( 'NONE', *, *, #190, .T. ) ;
#169 = CALENDAR_DATE ( 2021, 12, 11 ) ;
#170 = CIRCLE ( 'NONE', #148, 2.000000000000000000 ) ;
#171 = PRODUCT_DEFINITION_SHAPE ( 'NONE', 'NONE',  #69 ) ;
#172 = APPROVAL_ROLE ( '' ) ;
#173 = DATE_TIME_ROLE ( 'classification_date' ) ;
#174 = EDGE_CURVE ( 'NONE', #193, #193, #67, .T. ) ;
#175 = CALENDAR_DATE ( 2021, 12, 11 ) ;
#176 = VERTEX_POINT ( 'NONE', #128 ) ;
#177 = AXIS2_PLACEMENT_3D ( 'NONE', #93, #3, #77 ) ;
#178 = AXIS2_PLACEMENT_3D ( 'NONE', #147, #208, #90 ) ;
#179 = DESIGN_CONTEXT ( 'detailed design', #140, 'design' ) ;
#180 = DIRECTION ( 'NONE',  ( -3.491481338843133355E-15, 1.224646799147353207E-16, -1.000000000000000000 ) ) ;
#181 = EDGE_LOOP ( 'NONE', ( #86 ) ) ;
#182 = CARTESIAN_POINT ( 'NONE',  ( -7.910288174909372284E-31, 2.774555597924436574E-32, -2.265596578422603100E-16 ) ) ;
#183 = SECURITY_CLASSIFICATION ( '', '', #189 ) ;
#184 = APPLICATION_CONTEXT ( 'configuration controlled 3d designs of mechanical parts and assemblies' ) ;
#185 = PLANE ( 'NONE',  #154 ) ;
#186 = CARTESIAN_POINT ( 'NONE',  ( -7.910288174909372284E-31, 2.774555597924436574E-32, -2.265596578422603100E-16 ) ) ;
#187 = EDGE_LOOP ( 'NONE', ( #102 ) ) ;
#188 = ORGANIZATION ( 'UNSPECIFIED', 'UNSPECIFIED', '' ) ;
#189 = SECURITY_CLASSIFICATION_LEVEL ( 'unclassified' ) ;
#190 = EDGE_CURVE ( 'NONE', #1, #1, #170, .T. ) ;
#191 = FACE_OUTER_BOUND ( 'NONE', #153, .T. ) ;
#192 = COORDINATED_UNIVERSAL_TIME_OFFSET ( 1, 0, .AHEAD. ) ;
#193 = VERTEX_POINT ( 'NONE', #127 ) ;
#194 = APPROVAL_PERSON_ORGANIZATION ( #157, #48, #172 ) ;
#195 = CONICAL_SURFACE ( 'NONE', #215, 1.850000000000000089, 0.7853981633974482790 ) ;
#196 = DIRECTION ( 'NONE',  ( -3.491481338843133355E-15, 1.224646799147353207E-16, -1.000000000000000000 ) ) ;
#197 = ADVANCED_FACE ( 'NONE', ( #112, #14 ), #223, .T. ) ;
#198 = FACE_OUTER_BOUND ( 'NONE', #187, .T. ) ;
#199 = DIRECTION ( 'NONE',  ( -3.491481338843133355E-15, 1.224646799147353207E-16, -1.000000000000000000 ) ) ;
#200 = DIRECTION ( 'NONE',  ( 3.491481338843133355E-15, -1.224646799147353207E-16, 1.000000000000000000 ) ) ;
#201 = CIRCLE ( 'NONE', #178, 2.000000000000000000 ) ;
#202 = DIRECTION ( 'NONE',  ( -4.275831445896958607E-31, -1.000000000000000000, -1.224646799147353207E-16 ) ) ;
#203 = EDGE_LOOP ( 'NONE', ( #168 ) ) ;
#204 = SHAPE_DEFINITION_REPRESENTATION ( #171, #116 ) ;
#205 = ORIENTED_EDGE ( 'NONE', *, *, #210, .F. ) ;
#206 = ADVANCED_FACE ( 'NONE', ( #161, #191 ), #91, .T. ) ;
#207 = DATE_AND_TIME ( #169, #4 ) ;
#208 = DIRECTION ( 'NONE',  ( -3.491481338843133355E-15, 1.224646799147353207E-16, -1.000000000000000000 ) ) ;
#209 = MECHANICAL_CONTEXT ( 'NONE', #184, 'mechanical' ) ;
#210 = EDGE_CURVE ( 'NONE', #37, #37, #201, .T. ) ;
#211 = ORIENTED_EDGE ( 'NONE', *, *, #174, .T. ) ;
#212 = DIRECTION ( 'NONE',  ( 4.275831445896958607E-31, 1.000000000000000000, 1.224646799147353207E-16 ) ) ;
#213 = PLANE ( 'NONE',  #32 ) ;
#214 = CARTESIAN_POINT ( 'NONE',  ( 0.0000000000000000000, 0.0000000000000000000, 0.0000000000000000000 ) ) ;
#215 = AXIS2_PLACEMENT_3D ( 'NONE', #182, #83, #85 ) ;
#216 = EDGE_LOOP ( 'NONE', ( #51 ) ) ;
#217 = PRODUCT ( '57046', '57046', '', ( #209 ) ) ;
#218 = APPROVAL_STATUS ( 'not_yet_approved' ) ;
#219 = ORIENTED_EDGE ( 'NONE', *, *, #190, .F. ) ;
#220 = DATE_AND_TIME ( #2, #122 ) ;
#221 = PERSON_AND_ORGANIZATION ( #35, #188 ) ;
#222 = PERSON_AND_ORGANIZATION ( #35, #188 ) ;
#223 = CONICAL_SURFACE ( 'NONE', #29, 1.999999999999997335, 0.7853981633974526089 ) ;
ENDSEC;
END-ISO-10303-21;
