ISO-10303-21;
HEADER;
FILE_DESCRIPTION (( 'STEP AP203' ),
    '1' );
FILE_NAME ('57045.step',
    '2021-11-12T08:11:21',
    ( '' ),
    ( '' ),
    'SwSTEP 2.0',
    'SolidWorks 2019',
    '' );
FILE_SCHEMA (( 'CONFIG_CONTROL_DESIGN' ));
ENDSEC;

DATA;
#1 = SHAPE_DEFINITION_REPRESENTATION ( #195, #75 ) ;
#2 = PRODUCT_RELATED_PRODUCT_CATEGORY ( 'detail', '', ( #45 ) ) ;
#3 = PERSON ( 'UNSPECIFIED', 'UNSPECIFIED', 'UNSPECIFIED', ('UNSPECIFIED'), ('UNSPECIFIED'), ('UNSPECIFIED') ) ;
#4 = CC_DESIGN_APPROVAL ( #193, ( #199 ) ) ;
#5 = ADVANCED_FACE ( 'NONE', ( #94, #117 ), #182, .T. ) ;
#6 = CC_DESIGN_SECURITY_CLASSIFICATION ( #52, ( #169 ) ) ;
#7 = PERSON_AND_ORGANIZATION ( #3, #180 ) ;
#8 = FACE_BOUND ( 'NONE', #214, .T. ) ;
#9 = FACE_OUTER_BOUND ( 'NONE', #74, .T. ) ;
#10 = APPLICATION_CONTEXT ( 'configuration controlled 3d designs of mechanical parts and assemblies' ) ;
#11 = AXIS2_PLACEMENT_3D ( 'NONE', #181, #23, #171 ) ;
#12 = APPROVAL_PERSON_ORGANIZATION ( #7, #193, #198 ) ;
#13 = MANIFOLD_SOLID_BREP ( 'Corps-Déplacer/Copier1[1]', #162 ) ;
#14 = CARTESIAN_POINT ( 'NONE',  ( -5.772372451960894732E-31, 2.024675706593507771E-32, -1.653273178848926867E-16 ) ) ;
#15 = EDGE_CURVE ( 'NONE', #105, #105, #87, .T. ) ;
#16 = DIRECTION ( 'NONE',  ( -3.491481338843133355E-15, 1.224646799147353207E-16, -1.000000000000000000 ) ) ;
#17 = VERTEX_POINT ( 'NONE', #107 ) ;
#18 = APPLICATION_PROTOCOL_DEFINITION ( 'international standard', 'config_control_design', 1994, #10 ) ;
#19 = DATE_AND_TIME ( #205, #164 ) ;
#20 = EDGE_CURVE ( 'NONE', #17, #17, #92, .T. ) ;
#21 = DIRECTION ( 'NONE',  ( -3.491481338843133355E-15, 1.224646799147353207E-16, -1.000000000000000000 ) ) ;
#22 = FACE_OUTER_BOUND ( 'NONE', #134, .T. ) ;
#23 = DIRECTION ( 'NONE',  ( 3.491481338843133355E-15, -1.224646799147353207E-16, 1.000000000000000000 ) ) ;
#24 = CIRCLE ( 'NONE', #137, 1.350000000000000089 ) ;
#25 = MECHANICAL_CONTEXT ( 'NONE', #70, 'mechanical' ) ;
#26 = ADVANCED_FACE ( 'NONE', ( #9 ), #27, .T. ) ;
#27 = PLANE ( 'NONE',  #11 ) ;
#28 = DATE_TIME_ROLE ( 'creation_date' ) ;
#29 = CARTESIAN_POINT ( 'NONE',  ( 1.745740669421566678E-13, 1.199999999999996181, 50.00000000000000000 ) ) ;
#30 = AXIS2_PLACEMENT_3D ( 'NONE', #119, #16, #155 ) ;
#31 = AXIS2_PLACEMENT_3D ( 'NONE', #47, #102, #46 ) ;
#32 = APPROVAL ( #50, 'UNSPECIFIED' ) ;
#33 = DIRECTION ( 'NONE',  ( -4.275831445896958607E-31, -1.000000000000000000, -1.224646799147353207E-16 ) ) ;
#34 = DIRECTION ( 'NONE',  ( 3.491481338843133355E-15, -1.224646799147353207E-16, 1.000000000000000000 ) ) ;
#35 = DATE_TIME_ROLE ( 'classification_date' ) ;
#36 = AXIS2_PLACEMENT_3D ( 'NONE', #222, #183, #144 ) ;
#37 = CC_DESIGN_PERSON_AND_ORGANIZATION_ASSIGNMENT ( #177, #216, ( #52 ) ) ;
#38 = EDGE_LOOP ( 'NONE', ( #40 ) ) ;
#39 = DIRECTION ( 'NONE',  ( 0.0000000000000000000, 1.000000000000000000, 0.0000000000000000000 ) ) ;
#40 = ORIENTED_EDGE ( 'NONE', *, *, #15, .T. ) ;
#41 = PERSON_AND_ORGANIZATION ( #3, #180 ) ;
#42 = DIRECTION ( 'NONE',  ( -4.275831445896958607E-31, -1.000000000000000000, -1.224646799147353207E-16 ) ) ;
#43 = APPROVAL_ROLE ( '' ) ;
#44 = FACE_BOUND ( 'NONE', #56, .T. ) ;
#45 = PRODUCT ( '57045', '57045', '', ( #25 ) ) ;
#46 = DIRECTION ( 'NONE',  ( 4.275831445896958607E-31, 1.000000000000000000, 1.224646799147353207E-16 ) ) ;
#47 = CARTESIAN_POINT ( 'NONE',  ( -2.886186225980447366E-31, 1.012337853296753885E-32, -8.266365894244634333E-17 ) ) ;
#48 = DATE_AND_TIME ( #98, #213 ) ;
#49 = FACE_OUTER_BOUND ( 'NONE', #151, .T. ) ;
#50 = APPROVAL_STATUS ( 'not_yet_approved' ) ;
#51 = SECURITY_CLASSIFICATION_LEVEL ( 'unclassified' ) ;
#52 = SECURITY_CLASSIFICATION ( '', '', #51 ) ;
#53 = ADVANCED_FACE ( 'NONE', ( #22, #8 ), #218, .T. ) ;
#54 = AXIS2_PLACEMENT_3D ( 'NONE', #95, #114, #99 ) ;
#55 = CC_DESIGN_PERSON_AND_ORGANIZATION_ASSIGNMENT ( #106, #175, ( #199 ) ) ;
#56 = EDGE_LOOP ( 'NONE', ( #112 ) ) ;
#57 = ORIENTED_EDGE ( 'NONE', *, *, #158, .F. ) ;
#58 = APPROVAL_PERSON_ORGANIZATION ( #145, #32, #154 ) ;
#59 = EDGE_LOOP ( 'NONE', ( #97 ) ) ;
#60 = ORIENTED_EDGE ( 'NONE', *, *, #20, .T. ) ;
#61 = COORDINATED_UNIVERSAL_TIME_OFFSET ( 1, 0, .AHEAD. ) ;
#62 = DIRECTION ( 'NONE',  ( 3.491481338843133355E-15, -1.224646799147353207E-16, 1.000000000000000000 ) ) ;
#63 = FACE_OUTER_BOUND ( 'NONE', #38, .T. ) ;
#64 = CARTESIAN_POINT ( 'NONE',  ( 1.735266225405037467E-13, 1.499999999999994449, 49.70000000000000284 ) ) ;
#65 = DIRECTION ( 'NONE',  ( 0.0000000000000000000, 1.000000000000000000, 0.0000000000000000000 ) ) ;
#66 = DIRECTION ( 'NONE',  ( -3.491481338843133355E-15, 1.224646799147353207E-16, -1.000000000000000000 ) ) ;
#67 = CARTESIAN_POINT ( 'NONE',  ( 4.888073874380386697E-14, 1.499999999999998224, 14.00000000000000000 ) ) ;
#68 = EDGE_CURVE ( 'NONE', #174, #174, #77, .T. ) ;
#69 = APPROVAL_DATE_TIME ( #135, #193 ) ;
#70 = APPLICATION_CONTEXT ( 'configuration controlled 3d designs of mechanical parts and assemblies' ) ;
#71 = AXIS2_PLACEMENT_3D ( 'NONE', #122, #34, #33 ) ;
#72 = ADVANCED_FACE ( 'NONE', ( #44, #223 ), #167, .T. ) ;
#73 = UNCERTAINTY_MEASURE_WITH_UNIT (LENGTH_MEASURE( 1.000000000000000082E-05 ), #139, 'distance_accuracy_value', 'NONE');
#74 = EDGE_LOOP ( 'NONE', ( #131 ) ) ;
#75 = ADVANCED_BREP_SHAPE_REPRESENTATION ( '57045', ( #13, #170, #219 ), #142 ) ;
#76 = ORIENTED_EDGE ( 'NONE', *, *, #158, .T. ) ;
#77 = CIRCLE ( 'NONE', #30, 1.500000000000000000 ) ;
#78 = ORIENTED_EDGE ( 'NONE', *, *, #68, .T. ) ;
#79 = CARTESIAN_POINT ( 'NONE',  ( 0.0000000000000000000, 0.0000000000000000000, 0.0000000000000000000 ) ) ;
#80 = CARTESIAN_POINT ( 'NONE',  ( -5.772372451960894732E-31, 2.024675706593507771E-32, -1.653273178848926867E-16 ) ) ;
#81 = PERSON_AND_ORGANIZATION ( #3, #180 ) ;
#82 = DIRECTION ( 'NONE',  ( -3.491481338843133355E-15, 1.224646799147353207E-16, -1.000000000000000000 ) ) ;
#83 = LOCAL_TIME ( 9, 11, 21.00000000000000000, #188 ) ;
#84 = CARTESIAN_POINT ( 'NONE',  ( 4.888073874380386697E-14, 1.499999999999998224, 14.00000000000000000 ) ) ;
#85 = CYLINDRICAL_SURFACE ( 'NONE', #156, 1.500000000000000222 ) ;
#86 = VERTEX_POINT ( 'NONE', #163 ) ;
#87 = CIRCLE ( 'NONE', #184, 1.500000000000000444 ) ;
#88 = PERSON_AND_ORGANIZATION ( #3, #180 ) ;
#89 = CALENDAR_DATE ( 2021, 12, 11 ) ;
#90 = ADVANCED_FACE ( 'NONE', ( #63, #123 ), #85, .T. ) ;
#91 = AXIS2_PLACEMENT_3D ( 'NONE', #220, #120, #201 ) ;
#92 = CIRCLE ( 'NONE', #54, 1.500000000000000000 ) ;
#93 = APPROVAL_PERSON_ORGANIZATION ( #88, #208, #43 ) ;
#94 = FACE_OUTER_BOUND ( 'NONE', #150, .T. ) ;
#95 = CARTESIAN_POINT ( 'NONE',  ( 5.237222008264693130E-16, -1.836970198721027284E-17, 0.1499999999999998002 ) ) ;
#96 = CIRCLE ( 'NONE', #103, 1.200000000000002176 ) ;
#97 = ORIENTED_EDGE ( 'NONE', *, *, #20, .F. ) ;
#98 = CALENDAR_DATE ( 2021, 12, 11 ) ;
#99 = DIRECTION ( 'NONE',  ( 4.493836536903550616E-31, 1.000000000000000000, 1.264902534566421922E-16 ) ) ;
#100 = EDGE_CURVE ( 'NONE', #159, #159, #96, .T. ) ;
#101 = COORDINATED_UNIVERSAL_TIME_OFFSET ( 1, 0, .AHEAD. ) ;
#102 = DIRECTION ( 'NONE',  ( -3.491481338843133355E-15, 1.224646799147353207E-16, -1.000000000000000000 ) ) ;
#103 = AXIS2_PLACEMENT_3D ( 'NONE', #160, #141, #200 ) ;
#104 =( NAMED_UNIT ( * ) SI_UNIT ( $, .STERADIAN. ) SOLID_ANGLE_UNIT ( ) );
#105 = VERTEX_POINT ( 'NONE', #64 ) ;
#106 = PERSON_AND_ORGANIZATION ( #3, #180 ) ;
#107 = CARTESIAN_POINT ( 'NONE',  ( 5.237222008264699047E-16, 1.500000000000000000, 0.1499999999999999944 ) ) ;
#108 = PERSON_AND_ORGANIZATION_ROLE ( 'design_owner' ) ;
#109 = DIRECTION ( 'NONE',  ( 0.0000000000000000000, 0.0000000000000000000, 1.000000000000000000 ) ) ;
#110 = CC_DESIGN_APPROVAL ( #208, ( #52 ) ) ;
#111 = EDGE_CURVE ( 'NONE', #86, #86, #24, .T. ) ;
#112 = ORIENTED_EDGE ( 'NONE', *, *, #100, .T. ) ;
#113 = CIRCLE ( 'NONE', #36, 1.500000000000000000 ) ;
#114 = DIRECTION ( 'NONE',  ( -3.491481338843133355E-15, 1.224646799147353207E-16, -1.000000000000000000 ) ) ;
#115 = CC_DESIGN_DATE_AND_TIME_ASSIGNMENT ( #19, #28, ( #199 ) ) ;
#116 = DIRECTION ( 'NONE',  ( -3.491481338843133355E-15, 1.224646799147353207E-16, -1.000000000000000000 ) ) ;
#117 = FACE_OUTER_BOUND ( 'NONE', #59, .T. ) ;
#118 = PERSON_AND_ORGANIZATION_ROLE ( 'creator' ) ;
#119 = CARTESIAN_POINT ( 'NONE',  ( 4.888073874380386697E-14, -1.714505518806294638E-15, 14.00000000000000000 ) ) ;
#120 = DIRECTION ( 'NONE',  ( -3.491481338843133355E-15, 1.224646799147353207E-16, -1.000000000000000000 ) ) ;
#121 = AXIS2_PLACEMENT_3D ( 'NONE', #187, #66, #65 ) ;
#122 = CARTESIAN_POINT ( 'NONE',  ( 4.888073874380386697E-14, 1.124819836996390606E-32, 14.00000000000000000 ) ) ;
#123 = FACE_OUTER_BOUND ( 'NONE', #212, .T. ) ;
#124 = COORDINATED_UNIVERSAL_TIME_OFFSET ( 1, 0, .AHEAD. ) ;
#125 =( NAMED_UNIT ( * ) PLANE_ANGLE_UNIT ( ) SI_UNIT ( $, .RADIAN. ) );
#126 = PERSON_AND_ORGANIZATION_ROLE ( 'design_supplier' ) ;
#127 = CC_DESIGN_DATE_AND_TIME_ASSIGNMENT ( #136, #35, ( #52 ) ) ;
#128 = AXIS2_PLACEMENT_3D ( 'NONE', #80, #62, #42 ) ;
#129 = DIRECTION ( 'NONE',  ( 1.000000000000000000, 0.0000000000000000000, 0.0000000000000000000 ) ) ;
#130 = CLOSED_SHELL ( 'NONE', ( #179, #53, #5, #26 ) ) ;
#131 = ORIENTED_EDGE ( 'NONE', *, *, #68, .F. ) ;
#132 = CC_DESIGN_PERSON_AND_ORGANIZATION_ASSIGNMENT ( #152, #108, ( #45 ) ) ;
#133 = DIRECTION ( 'NONE',  ( 4.275831445896959482E-31, 1.000000000000000000, 1.224646799147353207E-16 ) ) ;
#134 = EDGE_LOOP ( 'NONE', ( #60 ) ) ;
#135 = DATE_AND_TIME ( #161, #202 ) ;
#136 = DATE_AND_TIME ( #89, #83 ) ;
#137 = AXIS2_PLACEMENT_3D ( 'NONE', #14, #82, #140 ) ;
#138 = DIRECTION ( 'NONE',  ( 4.275831445896959482E-31, 1.000000000000000000, 1.224646799147353207E-16 ) ) ;
#139 =( LENGTH_UNIT ( ) NAMED_UNIT ( * ) SI_UNIT ( .MILLI., .METRE. ) );
#140 = DIRECTION ( 'NONE',  ( 4.275831445896958607E-31, 1.000000000000000000, 1.224646799147353207E-16 ) ) ;
#141 = DIRECTION ( 'NONE',  ( -3.491481338843133355E-15, 1.224646799147353207E-16, -1.000000000000000000 ) ) ;
#142 =( GEOMETRIC_REPRESENTATION_CONTEXT ( 3 ) GLOBAL_UNCERTAINTY_ASSIGNED_CONTEXT ( ( #73 ) ) GLOBAL_UNIT_ASSIGNED_CONTEXT ( ( #139, #125, #104 ) ) REPRESENTATION_CONTEXT ( 'NONE', 'WORKASPACE' ) );
#143 = APPROVAL_STATUS ( 'not_yet_approved' ) ;
#144 = DIRECTION ( 'NONE',  ( 0.0000000000000000000, 1.000000000000000000, 0.0000000000000000000 ) ) ;
#145 = PERSON_AND_ORGANIZATION ( #3, #180 ) ;
#146 = ADVANCED_FACE ( 'NONE', ( #49 ), #217, .F. ) ;
#147 = APPROVAL_STATUS ( 'not_yet_approved' ) ;
#148 = LOCAL_TIME ( 9, 11, 21.00000000000000000, #124 ) ;
#149 = CARTESIAN_POINT ( 'NONE',  ( 0.0000000000000000000, 0.0000000000000000000, 0.0000000000000000000 ) ) ;
#150 = EDGE_LOOP ( 'NONE', ( #78 ) ) ;
#151 = EDGE_LOOP ( 'NONE', ( #210 ) ) ;
#152 = PERSON_AND_ORGANIZATION ( #3, #180 ) ;
#153 = EDGE_LOOP ( 'NONE', ( #197 ) ) ;
#154 = APPROVAL_ROLE ( '' ) ;
#155 = DIRECTION ( 'NONE',  ( 0.0000000000000000000, 1.000000000000000000, 0.0000000000000000000 ) ) ;
#156 = AXIS2_PLACEMENT_3D ( 'NONE', #203, #157, #138 ) ;
#157 = DIRECTION ( 'NONE',  ( -3.491481338843133355E-15, 1.224646799147353207E-16, -1.000000000000000000 ) ) ;
#158 = EDGE_CURVE ( 'NONE', #173, #173, #113, .T. ) ;
#159 = VERTEX_POINT ( 'NONE', #29 ) ;
#160 = CARTESIAN_POINT ( 'NONE',  ( 1.745740669421566678E-13, -6.123233995736766085E-15, 50.00000000000000000 ) ) ;
#161 = CALENDAR_DATE ( 2021, 12, 11 ) ;
#162 = CLOSED_SHELL ( 'NONE', ( #204, #90, #72, #146 ) ) ;
#163 = CARTESIAN_POINT ( 'NONE',  ( 0.0000000000000000000, 1.350000000000000089, 0.0000000000000000000 ) ) ;
#164 = LOCAL_TIME ( 9, 11, 21.00000000000000000, #196 ) ;
#165 = APPROVAL_DATE_TIME ( #189, #208 ) ;
#166 = APPLICATION_PROTOCOL_DEFINITION ( 'international standard', 'config_control_design', 1994, #70 ) ;
#167 = CONICAL_SURFACE ( 'NONE', #121, 1.500000000000000444, 0.7853981633974425058 ) ;
#168 = CC_DESIGN_PERSON_AND_ORGANIZATION_ASSIGNMENT ( #81, #126, ( #169 ) ) ;
#169 = PRODUCT_DEFINITION_FORMATION_WITH_SPECIFIED_SOURCE ( 'ANY', '', #45, .NOT_KNOWN. ) ;
#170 = MANIFOLD_SOLID_BREP ( 'Corps-Déplacer/Copier1[2]', #130 ) ;
#171 = DIRECTION ( 'NONE',  ( -4.275831445896958607E-31, -1.000000000000000000, -1.224646799147353207E-16 ) ) ;
#172 = EDGE_LOOP ( 'NONE', ( #76 ) ) ;
#173 = VERTEX_POINT ( 'NONE', #67 ) ;
#174 = VERTEX_POINT ( 'NONE', #84 ) ;
#175 = PERSON_AND_ORGANIZATION_ROLE ( 'creator' ) ;
#176 = FACE_OUTER_BOUND ( 'NONE', #194, .T. ) ;
#177 = PERSON_AND_ORGANIZATION ( #3, #180 ) ;
#178 = AXIS2_PLACEMENT_3D ( 'NONE', #149, #21, #133 ) ;
#179 = ADVANCED_FACE ( 'NONE', ( #176 ), #221, .T. ) ;
#180 = ORGANIZATION ( 'UNSPECIFIED', 'UNSPECIFIED', '' ) ;
#181 = CARTESIAN_POINT ( 'NONE',  ( 4.888073874380386697E-14, 1.124819836996390606E-32, 14.00000000000000000 ) ) ;
#182 = CYLINDRICAL_SURFACE ( 'NONE', #178, 1.500000000000000000 ) ;
#183 = DIRECTION ( 'NONE',  ( -3.491481338843133355E-15, 1.224646799147353207E-16, -1.000000000000000000 ) ) ;
#184 = AXIS2_PLACEMENT_3D ( 'NONE', #215, #116, #39 ) ;
#185 = PLANE ( 'NONE',  #71 ) ;
#186 = FACE_OUTER_BOUND ( 'NONE', #172, .T. ) ;
#187 = CARTESIAN_POINT ( 'NONE',  ( 1.735266225405037467E-13, -6.086494591762345225E-15, 49.70000000000000284 ) ) ;
#188 = COORDINATED_UNIVERSAL_TIME_OFFSET ( 1, 0, .AHEAD. ) ;
#189 = DATE_AND_TIME ( #207, #148 ) ;
#190 = ORIENTED_EDGE ( 'NONE', *, *, #111, .F. ) ;
#191 = CC_DESIGN_APPROVAL ( #32, ( #169 ) ) ;
#192 = ORIENTED_EDGE ( 'NONE', *, *, #111, .T. ) ;
#193 = APPROVAL ( #143, 'UNSPECIFIED' ) ;
#194 = EDGE_LOOP ( 'NONE', ( #192 ) ) ;
#195 = PRODUCT_DEFINITION_SHAPE ( 'NONE', 'NONE',  #199 ) ;
#196 = COORDINATED_UNIVERSAL_TIME_OFFSET ( 1, 0, .AHEAD. ) ;
#197 = ORIENTED_EDGE ( 'NONE', *, *, #15, .F. ) ;
#198 = APPROVAL_ROLE ( '' ) ;
#199 = PRODUCT_DEFINITION ( 'UNKNOWN', '', #169, #209 ) ;
#200 = DIRECTION ( 'NONE',  ( 0.0000000000000000000, 1.000000000000000000, 0.0000000000000000000 ) ) ;
#201 = DIRECTION ( 'NONE',  ( 4.275831445896958607E-31, 1.000000000000000000, 1.224646799147353207E-16 ) ) ;
#202 = LOCAL_TIME ( 9, 11, 21.00000000000000000, #61 ) ;
#203 = CARTESIAN_POINT ( 'NONE',  ( 0.0000000000000000000, 0.0000000000000000000, 0.0000000000000000000 ) ) ;
#204 = ADVANCED_FACE ( 'NONE', ( #186 ), #185, .F. ) ;
#205 = CALENDAR_DATE ( 2021, 12, 11 ) ;
#206 = APPROVAL_DATE_TIME ( #48, #32 ) ;
#207 = CALENDAR_DATE ( 2021, 12, 11 ) ;
#208 = APPROVAL ( #147, 'UNSPECIFIED' ) ;
#209 = DESIGN_CONTEXT ( 'detailed design', #10, 'design' ) ;
#210 = ORIENTED_EDGE ( 'NONE', *, *, #100, .F. ) ;
#211 = CC_DESIGN_PERSON_AND_ORGANIZATION_ASSIGNMENT ( #41, #118, ( #169 ) ) ;
#212 = EDGE_LOOP ( 'NONE', ( #57 ) ) ;
#213 = LOCAL_TIME ( 9, 11, 21.00000000000000000, #101 ) ;
#214 = EDGE_LOOP ( 'NONE', ( #190 ) ) ;
#215 = CARTESIAN_POINT ( 'NONE',  ( 1.735266225405037467E-13, -6.086494591762345225E-15, 49.70000000000000284 ) ) ;
#216 = PERSON_AND_ORGANIZATION_ROLE ( 'classification_officer' ) ;
#217 = PLANE ( 'NONE',  #91 ) ;
#218 = CONICAL_SURFACE ( 'NONE', #128, 1.350000000000000089, 0.7853981633974482790 ) ;
#219 = AXIS2_PLACEMENT_3D ( 'NONE', #79, #109, #129 ) ;
#220 = CARTESIAN_POINT ( 'NONE',  ( 1.745740669421566678E-13, 8.998558695971073119E-33, 50.00000000000000000 ) ) ;
#221 = PLANE ( 'NONE',  #31 ) ;
#222 = CARTESIAN_POINT ( 'NONE',  ( 4.888073874380386697E-14, -1.714505518806294638E-15, 14.00000000000000000 ) ) ;
#223 = FACE_OUTER_BOUND ( 'NONE', #153, .T. ) ;
ENDSEC;
END-ISO-10303-21;
