ISO-10303-21;
HEADER;
FILE_DESCRIPTION (( 'STEP AP203' ),
    '1' );
FILE_NAME ('57029.step',
    '2021-11-17T09:21:05',
    ( '' ),
    ( '' ),
    'SwSTEP 2.0',
    'SolidWorks 2019',
    '' );
FILE_SCHEMA (( 'CONFIG_CONTROL_DESIGN' ));
ENDSEC;

DATA;
#1 = DIRECTION ( 'NONE',  ( -3.491481338843133355E-15, 1.224646799147353454E-16, -1.000000000000000000 ) ) ;
#2 = DIRECTION ( 'NONE',  ( -4.275831445896959482E-31, -1.000000000000000000, -1.224646799147353454E-16 ) ) ;
#3 = AXIS2_PLACEMENT_3D ( 'NONE', #151, #89, #150 ) ;
#4 = VERTEX_POINT ( 'NONE', #73 ) ;
#5 = CARTESIAN_POINT ( 'NONE',  ( 3.631140592396858689E-13, 6.748919021978343909E-32, 104.0000000000000000 ) ) ;
#6 = ADVANCED_FACE ( 'NONE', ( #32 ), #67, .T. ) ;
#7 = DIRECTION ( 'NONE',  ( -3.491481338843133355E-15, 1.224646799147353454E-16, -1.000000000000000000 ) ) ;
#8 = CALENDAR_DATE ( 2021, 17, 11 ) ;
#9 = COORDINATED_UNIVERSAL_TIME_OFFSET ( 1, 0, .AHEAD. ) ;
#10 = PERSON_AND_ORGANIZATION ( #189, #190 ) ;
#11 = PERSON_AND_ORGANIZATION ( #189, #190 ) ;
#12 = AXIS2_PLACEMENT_3D ( 'NONE', #168, #1, #116 ) ;
#13 = APPROVAL_ROLE ( '' ) ;
#14 = DATE_AND_TIME ( #80, #60 ) ;
#15 = DESIGN_CONTEXT ( 'detailed design', #193, 'design' ) ;
#16 = EDGE_LOOP ( 'NONE', ( #206 ) ) ;
#17 = ORIENTED_EDGE ( 'NONE', *, *, #61, .T. ) ;
#18 = EDGE_LOOP ( 'NONE', ( #132 ) ) ;
#19 = CC_DESIGN_SECURITY_CLASSIFICATION ( #159, ( #134 ) ) ;
#20 = EDGE_CURVE ( 'NONE', #174, #174, #68, .T. ) ;
#21 = CARTESIAN_POINT ( 'NONE',  ( -4.167288764085502770E-30, 1.453656063335171267E-31, -1.193558939503394514E-15 ) ) ;
#22 = CYLINDRICAL_SURFACE ( 'NONE', #71, 10.00000000000000178 ) ;
#23 = DIRECTION ( 'NONE',  ( -3.491481338843133355E-15, 1.224646799147353454E-16, -1.000000000000000000 ) ) ;
#24 = FACE_OUTER_BOUND ( 'NONE', #126, .T. ) ;
#25 = CARTESIAN_POINT ( 'NONE',  ( 0.0000000000000000000, 0.0000000000000000000, 0.0000000000000000000 ) ) ;
#26 = MECHANICAL_CONTEXT ( 'NONE', #203, 'mechanical' ) ;
#27 = DATE_AND_TIME ( #194, #50 ) ;
#28 = COORDINATED_UNIVERSAL_TIME_OFFSET ( 1, 0, .AHEAD. ) ;
#29 = CARTESIAN_POINT ( 'NONE',  ( 1.396592535537253342E-13, 9.999999999999994671, 40.00000000000000000 ) ) ;
#30 = CC_DESIGN_PERSON_AND_ORGANIZATION_ASSIGNMENT ( #155, #42, ( #111 ) ) ;
#31 = ORIENTED_EDGE ( 'NONE', *, *, #220, .T. ) ;
#32 = FACE_OUTER_BOUND ( 'NONE', #98, .T. ) ;
#33 = ORIENTED_EDGE ( 'NONE', *, *, #125, .F. ) ;
#34 = DIRECTION ( 'NONE',  ( -4.237045877651918877E-31, -1.000000000000000000, -1.219727444046192488E-16 ) ) ;
#35 = CARTESIAN_POINT ( 'NONE',  ( -2.137915722948479478E-30, 7.498798913309291323E-32, -6.123233995736767268E-16 ) ) ;
#36 = PRODUCT_RELATED_PRODUCT_CATEGORY ( 'detail', '', ( #41 ) ) ;
#37 = CARTESIAN_POINT ( 'NONE',  ( 1.396592535537253342E-13, 7.498798913309283660E-32, 40.00000000000000000 ) ) ;
#38 = CC_DESIGN_APPROVAL ( #215, ( #134 ) ) ;
#39 = FACE_OUTER_BOUND ( 'NONE', #219, .T. ) ;
#40 = CARTESIAN_POINT ( 'NONE',  ( 6.982962677686234170E-16, -2.435834570415079525E-17, 0.1999999999999990674 ) ) ;
#41 = PRODUCT ( '57029', '57029', '', ( #26 ) ) ;
#42 = PERSON_AND_ORGANIZATION_ROLE ( 'creator' ) ;
#43 = APPROVAL_PERSON_ORGANIZATION ( #156, #215, #13 ) ;
#44 = AXIS2_PLACEMENT_3D ( 'NONE', #75, #58, #102 ) ;
#45 = APPROVAL_DATE_TIME ( #27, #162 ) ;
#46 = DATE_TIME_ROLE ( 'classification_date' ) ;
#47 = PERSON_AND_ORGANIZATION ( #189, #190 ) ;
#48 = CONICAL_SURFACE ( 'NONE', #166, 10.00000000000000000, 0.7853981633974489451 ) ;
#49 = EDGE_LOOP ( 'NONE', ( #165 ) ) ;
#50 = LOCAL_TIME ( 10, 21, 5.000000000000000000, #90 ) ;
#51 = DIRECTION ( 'NONE',  ( -4.275831445896959482E-31, -1.000000000000000000, -1.224646799147353454E-16 ) ) ;
#52 = EDGE_LOOP ( 'NONE', ( #17 ) ) ;
#53 = DIRECTION ( 'NONE',  ( -4.252335473556634944E-31, -1.000000000000000000, -1.217917285207545432E-16 ) ) ;
#54 =( GEOMETRIC_REPRESENTATION_CONTEXT ( 3 ) GLOBAL_UNCERTAINTY_ASSIGNED_CONTEXT ( ( #184 ) ) GLOBAL_UNIT_ASSIGNED_CONTEXT ( ( #95, #216, #63 ) ) REPRESENTATION_CONTEXT ( 'NONE', 'WORKASPACE' ) );
#55 = FACE_OUTER_BOUND ( 'NONE', #85, .T. ) ;
#56 = CC_DESIGN_DATE_AND_TIME_ASSIGNMENT ( #202, #46, ( #159 ) ) ;
#57 = DIRECTION ( 'NONE',  ( 3.491481338843133355E-15, -1.224646799147353454E-16, 1.000000000000000000 ) ) ;
#58 = DIRECTION ( 'NONE',  ( -3.491481338843133355E-15, 1.224646799147353454E-16, -1.000000000000000000 ) ) ;
#59 = CLOSED_SHELL ( 'NONE', ( #92, #103, #183, #207 ) ) ;
#60 = LOCAL_TIME ( 10, 21, 5.000000000000000000, #106 ) ;
#61 = EDGE_CURVE ( 'NONE', #4, #4, #94, .T. ) ;
#62 = CARTESIAN_POINT ( 'NONE',  ( 3.596225779008426977E-13, 9.999999999999989342, 103.0000000000000000 ) ) ;
#63 =( NAMED_UNIT ( * ) SI_UNIT ( $, .STERADIAN. ) SOLID_ANGLE_UNIT ( ) );
#64 = PERSON_AND_ORGANIZATION_ROLE ( 'creator' ) ;
#65 = EDGE_LOOP ( 'NONE', ( #33 ) ) ;
#66 = MANIFOLD_SOLID_BREP ( 'Corps-Déplacer/Copier1[2]', #195 ) ;
#67 = PLANE ( 'NONE',  #128 ) ;
#68 = CIRCLE ( 'NONE', #188, 10.00000000000000000 ) ;
#69 = FACE_OUTER_BOUND ( 'NONE', #109, .T. ) ;
#70 = CYLINDRICAL_SURFACE ( 'NONE', #3, 10.00000000000000000 ) ;
#71 = AXIS2_PLACEMENT_3D ( 'NONE', #25, #187, #86 ) ;
#72 = ADVANCED_FACE ( 'NONE', ( #170, #87 ), #48, .T. ) ;
#73 = CARTESIAN_POINT ( 'NONE',  ( 3.631140592396858689E-13, 8.999999999999987566, 104.0000000000000000 ) ) ;
#74 = DIRECTION ( 'NONE',  ( 3.491481338843133355E-15, -1.217917285207545432E-16, 1.000000000000000000 ) ) ;
#75 = CARTESIAN_POINT ( 'NONE',  ( 3.596225779008426977E-13, -1.261386203121773919E-14, 103.0000000000000000 ) ) ;
#76 = CIRCLE ( 'NONE', #129, 10.00000000000000000 ) ;
#77 = PERSON_AND_ORGANIZATION_ROLE ( 'design_owner' ) ;
#78 = VERTEX_POINT ( 'NONE', #29 ) ;
#79 = DATE_AND_TIME ( #8, #82 ) ;
#80 = CALENDAR_DATE ( 2021, 17, 11 ) ;
#81 = APPROVAL ( #160, 'UNSPECIFIED' ) ;
#82 = LOCAL_TIME ( 10, 21, 5.000000000000000000, #9 ) ;
#83 = APPROVAL_DATE_TIME ( #79, #215 ) ;
#84 = CARTESIAN_POINT ( 'NONE',  ( -8.334577528171004140E-30, -9.799999999999998934, -2.387117879006789028E-15 ) ) ;
#85 = EDGE_LOOP ( 'NONE', ( #130 ) ) ;
#86 = DIRECTION ( 'NONE',  ( 4.275831445896959482E-31, 1.000000000000000000, 1.224646799147353700E-16 ) ) ;
#87 = FACE_OUTER_BOUND ( 'NONE', #16, .T. ) ;
#88 = PLANE ( 'NONE',  #176 ) ;
#89 = DIRECTION ( 'NONE',  ( -3.491481338843133355E-15, 1.224646799147353454E-16, -1.000000000000000000 ) ) ;
#90 = COORDINATED_UNIVERSAL_TIME_OFFSET ( 1, 0, .AHEAD. ) ;
#91 = DIRECTION ( 'NONE',  ( 1.000000000000000000, 0.0000000000000000000, 0.0000000000000000000 ) ) ;
#92 = ADVANCED_FACE ( 'NONE', ( #69 ), #118, .F. ) ;
#93 = CALENDAR_DATE ( 2021, 17, 11 ) ;
#94 = CIRCLE ( 'NONE', #221, 9.000000000000000000 ) ;
#95 =( LENGTH_UNIT ( ) NAMED_UNIT ( * ) SI_UNIT ( .MILLI., .METRE. ) );
#96 = EDGE_LOOP ( 'NONE', ( #148 ) ) ;
#97 = CIRCLE ( 'NONE', #12, 10.00000000000000000 ) ;
#98 = EDGE_LOOP ( 'NONE', ( #110 ) ) ;
#99 = ORIENTED_EDGE ( 'NONE', *, *, #61, .F. ) ;
#100 = DIRECTION ( 'NONE',  ( 0.0000000000000000000, 1.000000000000000000, 0.0000000000000000000 ) ) ;
#101 = CARTESIAN_POINT ( 'NONE',  ( 1.396592535537253342E-13, 9.999999999999994671, 40.00000000000000000 ) ) ;
#102 = DIRECTION ( 'NONE',  ( 0.0000000000000000000, 1.000000000000000000, 0.0000000000000000000 ) ) ;
#103 = ADVANCED_FACE ( 'NONE', ( #213, #39 ), #22, .T. ) ;
#104 = AXIS2_PLACEMENT_3D ( 'NONE', #35, #7, #211 ) ;
#105 = PERSON_AND_ORGANIZATION ( #189, #190 ) ;
#106 = COORDINATED_UNIVERSAL_TIME_OFFSET ( 1, 0, .AHEAD. ) ;
#107 = PERSON_AND_ORGANIZATION_ROLE ( 'design_supplier' ) ;
#108 = LOCAL_TIME ( 10, 21, 5.000000000000000000, #145 ) ;
#109 = EDGE_LOOP ( 'NONE', ( #164 ) ) ;
#110 = ORIENTED_EDGE ( 'NONE', *, *, #180, .F. ) ;
#111 = PRODUCT_DEFINITION ( 'UNKNOWN', '', #134, #15 ) ;
#112 = CARTESIAN_POINT ( 'NONE',  ( 1.396592535537253342E-13, 7.498798913309283660E-32, 40.00000000000000000 ) ) ;
#113 = CC_DESIGN_APPROVAL ( #162, ( #111 ) ) ;
#114 = CARTESIAN_POINT ( 'NONE',  ( 3.596225779008426977E-13, -1.261386203121773919E-14, 103.0000000000000000 ) ) ;
#115 = FACE_OUTER_BOUND ( 'NONE', #49, .T. ) ;
#116 = DIRECTION ( 'NONE',  ( 0.0000000000000000000, 1.000000000000000000, 0.0000000000000000000 ) ) ;
#117 = DIRECTION ( 'NONE',  ( 3.491481338843133355E-15, -1.217917285207545432E-16, 1.000000000000000000 ) ) ;
#118 = PLANE ( 'NONE',  #139 ) ;
#119 = PERSON_AND_ORGANIZATION ( #189, #190 ) ;
#120 = CC_DESIGN_DATE_AND_TIME_ASSIGNMENT ( #177, #161, ( #111 ) ) ;
#121 = APPROVAL_STATUS ( 'not_yet_approved' ) ;
#122 = AXIS2_PLACEMENT_3D ( 'NONE', #175, #157, #91 ) ;
#123 = APPROVAL_DATE_TIME ( #14, #81 ) ;
#124 = VERTEX_POINT ( 'NONE', #199 ) ;
#125 = EDGE_CURVE ( 'NONE', #210, #210, #201, .T. ) ;
#126 = EDGE_LOOP ( 'NONE', ( #99 ) ) ;
#127 = CC_DESIGN_PERSON_AND_ORGANIZATION_ASSIGNMENT ( #105, #178, ( #159 ) ) ;
#128 = AXIS2_PLACEMENT_3D ( 'NONE', #112, #204, #51 ) ;
#129 = AXIS2_PLACEMENT_3D ( 'NONE', #40, #117, #34 ) ;
#130 = ORIENTED_EDGE ( 'NONE', *, *, #152, .T. ) ;
#131 = ADVANCED_FACE ( 'NONE', ( #192, #55 ), #70, .T. ) ;
#132 = ORIENTED_EDGE ( 'NONE', *, *, #125, .T. ) ;
#133 = CARTESIAN_POINT ( 'NONE',  ( 3.631140592396858689E-13, -1.273632671113247592E-14, 104.0000000000000000 ) ) ;
#134 = PRODUCT_DEFINITION_FORMATION_WITH_SPECIFIED_SOURCE ( 'ANY', '', #41, .NOT_KNOWN. ) ;
#135 = APPROVAL_PERSON_ORGANIZATION ( #119, #162, #197 ) ;
#136 = DIRECTION ( 'NONE',  ( -3.491481338843133355E-15, 1.224646799147353454E-16, -1.000000000000000000 ) ) ;
#137 = DIRECTION ( 'NONE',  ( -4.237045877651918877E-31, -1.000000000000000000, -1.219727444046192488E-16 ) ) ;
#138 = DIRECTION ( 'NONE',  ( 4.275831445896959482E-31, 1.000000000000000000, 1.224646799147353454E-16 ) ) ;
#139 = AXIS2_PLACEMENT_3D ( 'NONE', #37, #57, #2 ) ;
#140 = CARTESIAN_POINT ( 'NONE',  ( 6.982962677686234170E-16, -2.435834570415079525E-17, 0.1999999999999990674 ) ) ;
#141 = APPLICATION_PROTOCOL_DEFINITION ( 'international standard', 'config_control_design', 1994, #193 ) ;
#142 = SHAPE_DEFINITION_REPRESENTATION ( #169, #167 ) ;
#143 = PERSON_AND_ORGANIZATION ( #189, #190 ) ;
#144 = APPROVAL_ROLE ( '' ) ;
#145 = COORDINATED_UNIVERSAL_TIME_OFFSET ( 1, 0, .AHEAD. ) ;
#146 = CIRCLE ( 'NONE', #44, 10.00000000000000178 ) ;
#147 = SECURITY_CLASSIFICATION_LEVEL ( 'unclassified' ) ;
#148 = ORIENTED_EDGE ( 'NONE', *, *, #180, .T. ) ;
#149 = DIRECTION ( 'NONE',  ( -3.491481338843133355E-15, 1.224646799147353454E-16, -1.000000000000000000 ) ) ;
#150 = DIRECTION ( 'NONE',  ( 4.275831445896958607E-31, 1.000000000000000000, 1.224646799147353454E-16 ) ) ;
#151 = CARTESIAN_POINT ( 'NONE',  ( 0.0000000000000000000, 0.0000000000000000000, 0.0000000000000000000 ) ) ;
#152 = EDGE_CURVE ( 'NONE', #124, #124, #76, .T. ) ;
#153 = DIRECTION ( 'NONE',  ( 0.0000000000000000000, 1.000000000000000000, 0.0000000000000000000 ) ) ;
#154 = CC_DESIGN_PERSON_AND_ORGANIZATION_ASSIGNMENT ( #10, #77, ( #41 ) ) ;
#155 = PERSON_AND_ORGANIZATION ( #189, #190 ) ;
#156 = PERSON_AND_ORGANIZATION ( #189, #190 ) ;
#157 = DIRECTION ( 'NONE',  ( 0.0000000000000000000, 0.0000000000000000000, 1.000000000000000000 ) ) ;
#158 = APPROVAL_STATUS ( 'not_yet_approved' ) ;
#159 = SECURITY_CLASSIFICATION ( '', '', #147 ) ;
#160 = APPROVAL_STATUS ( 'not_yet_approved' ) ;
#161 = DATE_TIME_ROLE ( 'creation_date' ) ;
#162 = APPROVAL ( #121, 'UNSPECIFIED' ) ;
#163 = LOCAL_TIME ( 10, 21, 5.000000000000000000, #28 ) ;
#164 = ORIENTED_EDGE ( 'NONE', *, *, #20, .T. ) ;
#165 = ORIENTED_EDGE ( 'NONE', *, *, #220, .F. ) ;
#166 = AXIS2_PLACEMENT_3D ( 'NONE', #140, #74, #137 ) ;
#167 = ADVANCED_BREP_SHAPE_REPRESENTATION ( '57029', ( #214, #66, #122 ), #54 ) ;
#168 = CARTESIAN_POINT ( 'NONE',  ( 1.396592535537253342E-13, -4.898587196589413815E-15, 40.00000000000000000 ) ) ;
#169 = PRODUCT_DEFINITION_SHAPE ( 'NONE', 'NONE',  #111 ) ;
#170 = FACE_BOUND ( 'NONE', #18, .T. ) ;
#171 = CC_DESIGN_PERSON_AND_ORGANIZATION_ASSIGNMENT ( #47, #107, ( #134 ) ) ;
#172 = FACE_BOUND ( 'NONE', #52, .T. ) ;
#173 = DIRECTION ( 'NONE',  ( 3.491481338843133355E-15, -1.217917285207545432E-16, 1.000000000000000000 ) ) ;
#174 = VERTEX_POINT ( 'NONE', #101 ) ;
#175 = CARTESIAN_POINT ( 'NONE',  ( 0.0000000000000000000, 0.0000000000000000000, 0.0000000000000000000 ) ) ;
#176 = AXIS2_PLACEMENT_3D ( 'NONE', #5, #136, #138 ) ;
#177 = DATE_AND_TIME ( #93, #108 ) ;
#178 = PERSON_AND_ORGANIZATION_ROLE ( 'classification_officer' ) ;
#179 = APPLICATION_PROTOCOL_DEFINITION ( 'international standard', 'config_control_design', 1994, #203 ) ;
#180 = EDGE_CURVE ( 'NONE', #78, #78, #97, .T. ) ;
#181 = VERTEX_POINT ( 'NONE', #62 ) ;
#182 = AXIS2_PLACEMENT_3D ( 'NONE', #21, #173, #53 ) ;
#183 = ADVANCED_FACE ( 'NONE', ( #172, #115 ), #208, .T. ) ;
#184 = UNCERTAINTY_MEASURE_WITH_UNIT (LENGTH_MEASURE( 1.000000000000000082E-05 ), #95, 'distance_accuracy_value', 'NONE');
#185 = DIRECTION ( 'NONE',  ( 0.0000000000000000000, 1.000000000000000000, 0.0000000000000000000 ) ) ;
#186 = PLANE ( 'NONE',  #104 ) ;
#187 = DIRECTION ( 'NONE',  ( -3.491481338843133355E-15, 1.224646799147353454E-16, -1.000000000000000000 ) ) ;
#188 = AXIS2_PLACEMENT_3D ( 'NONE', #222, #23, #100 ) ;
#189 = PERSON ( 'UNSPECIFIED', 'UNSPECIFIED', 'UNSPECIFIED', ('UNSPECIFIED'), ('UNSPECIFIED'), ('UNSPECIFIED') ) ;
#190 = ORGANIZATION ( 'UNSPECIFIED', 'UNSPECIFIED', '' ) ;
#191 = DIRECTION ( 'NONE',  ( -3.491481338843133355E-15, 1.224646799147353454E-16, -1.000000000000000000 ) ) ;
#192 = FACE_OUTER_BOUND ( 'NONE', #96, .T. ) ;
#193 = APPLICATION_CONTEXT ( 'configuration controlled 3d designs of mechanical parts and assemblies' ) ;
#194 = CALENDAR_DATE ( 2021, 17, 11 ) ;
#195 = CLOSED_SHELL ( 'NONE', ( #131, #6, #72, #217 ) ) ;
#196 = AXIS2_PLACEMENT_3D ( 'NONE', #114, #191, #153 ) ;
#197 = APPROVAL_ROLE ( '' ) ;
#198 = CC_DESIGN_PERSON_AND_ORGANIZATION_ASSIGNMENT ( #143, #64, ( #134 ) ) ;
#199 = CARTESIAN_POINT ( 'NONE',  ( 6.982962677686191769E-16, -10.00000000000000000, 0.1999999999999978462 ) ) ;
#200 = CALENDAR_DATE ( 2021, 17, 11 ) ;
#201 = CIRCLE ( 'NONE', #182, 9.799999999999998934 ) ;
#202 = DATE_AND_TIME ( #200, #163 ) ;
#203 = APPLICATION_CONTEXT ( 'configuration controlled 3d designs of mechanical parts and assemblies' ) ;
#204 = DIRECTION ( 'NONE',  ( 3.491481338843133355E-15, -1.224646799147353454E-16, 1.000000000000000000 ) ) ;
#205 = CC_DESIGN_APPROVAL ( #81, ( #159 ) ) ;
#206 = ORIENTED_EDGE ( 'NONE', *, *, #152, .F. ) ;
#207 = ADVANCED_FACE ( 'NONE', ( #24 ), #88, .F. ) ;
#208 = CONICAL_SURFACE ( 'NONE', #196, 10.00000000000000178, 0.7853981633974491672 ) ;
#209 = FACE_OUTER_BOUND ( 'NONE', #65, .T. ) ;
#210 = VERTEX_POINT ( 'NONE', #84 ) ;
#211 = DIRECTION ( 'NONE',  ( 4.275831445896959482E-31, 1.000000000000000000, 1.224646799147353454E-16 ) ) ;
#212 = APPROVAL_PERSON_ORGANIZATION ( #11, #81, #144 ) ;
#213 = FACE_OUTER_BOUND ( 'NONE', #218, .T. ) ;
#214 = MANIFOLD_SOLID_BREP ( 'Corps-Déplacer/Copier1[1]', #59 ) ;
#215 = APPROVAL ( #158, 'UNSPECIFIED' ) ;
#216 =( NAMED_UNIT ( * ) PLANE_ANGLE_UNIT ( ) SI_UNIT ( $, .RADIAN. ) );
#217 = ADVANCED_FACE ( 'NONE', ( #209 ), #186, .T. ) ;
#218 = EDGE_LOOP ( 'NONE', ( #31 ) ) ;
#219 = EDGE_LOOP ( 'NONE', ( #223 ) ) ;
#220 = EDGE_CURVE ( 'NONE', #181, #181, #146, .T. ) ;
#221 = AXIS2_PLACEMENT_3D ( 'NONE', #133, #149, #185 ) ;
#222 = CARTESIAN_POINT ( 'NONE',  ( 1.396592535537253342E-13, -4.898587196589413815E-15, 40.00000000000000000 ) ) ;
#223 = ORIENTED_EDGE ( 'NONE', *, *, #20, .F. ) ;
ENDSEC;
END-ISO-10303-21;
