ISO-10303-21;
HEADER;
FILE_DESCRIPTION (( 'STEP AP203' ),
    '1' );
FILE_NAME ('57028.step',
    '2021-11-17T09:21:04',
    ( '' ),
    ( '' ),
    'SwSTEP 2.0',
    'SolidWorks 2019',
    '' );
FILE_SCHEMA (( 'CONFIG_CONTROL_DESIGN' ));
ENDSEC;

DATA;
#1 = AXIS2_PLACEMENT_3D ( 'NONE', #32, #102, #171 ) ;
#2 = ORIENTED_EDGE ( 'NONE', *, *, #124, .T. ) ;
#3 = ADVANCED_FACE ( 'NONE', ( #95, #136 ), #205, .T. ) ;
#4 = EDGE_LOOP ( 'NONE', ( #93 ) ) ;
#5 = FACE_OUTER_BOUND ( 'NONE', #207, .T. ) ;
#6 = CYLINDRICAL_SURFACE ( 'NONE', #60, 8.000000000000000000 ) ;
#7 = PRODUCT_DEFINITION_FORMATION_WITH_SPECIFIED_SOURCE ( 'ANY', '', #187, .NOT_KNOWN. ) ;
#8 = VERTEX_POINT ( 'NONE', #143 ) ;
#9 = CARTESIAN_POINT ( 'NONE',  ( 0.0000000000000000000, 0.0000000000000000000, 0.0000000000000000000 ) ) ;
#10 = APPLICATION_PROTOCOL_DEFINITION ( 'international standard', 'config_control_design', 1994, #177 ) ;
#11 = COORDINATED_UNIVERSAL_TIME_OFFSET ( 1, 0, .AHEAD. ) ;
#12 = APPROVAL_STATUS ( 'not_yet_approved' ) ;
#13 = PERSON_AND_ORGANIZATION ( #61, #47 ) ;
#14 = ADVANCED_FACE ( 'NONE', ( #5 ), #46, .F. ) ;
#15 = EDGE_CURVE ( 'NONE', #38, #38, #134, .T. ) ;
#16 = CC_DESIGN_APPROVAL ( #178, ( #130 ) ) ;
#17 = DIRECTION ( 'NONE',  ( 0.0000000000000000000, 1.000000000000000000, 0.0000000000000000000 ) ) ;
#18 = PLANE ( 'NONE',  #150 ) ;
#19 = VERTEX_POINT ( 'NONE', #84 ) ;
#20 = FACE_OUTER_BOUND ( 'NONE', #133, .T. ) ;
#21 = DIRECTION ( 'NONE',  ( 0.0000000000000000000, 1.000000000000000000, 0.0000000000000000000 ) ) ;
#22 = AXIS2_PLACEMENT_3D ( 'NONE', #49, #118, #37 ) ;
#23 = AXIS2_PLACEMENT_3D ( 'NONE', #140, #212, #121 ) ;
#24 = APPROVAL ( #12, 'UNSPECIFIED' ) ;
#25 = DATE_AND_TIME ( #127, #33 ) ;
#26 = PERSON_AND_ORGANIZATION ( #61, #47 ) ;
#27 = PERSON_AND_ORGANIZATION ( #61, #47 ) ;
#28 = EDGE_LOOP ( 'NONE', ( #202 ) ) ;
#29 = ORIENTED_EDGE ( 'NONE', *, *, #191, .T. ) ;
#30 = LOCAL_TIME ( 10, 21, 4.000000000000000000, #58 ) ;
#31 = DIRECTION ( 'NONE',  ( 4.275831445896958607E-31, 1.000000000000000000, 1.224646799147353207E-16 ) ) ;
#32 = CARTESIAN_POINT ( 'NONE',  ( 1.256933281983528008E-13, 5.999039130647424958E-32, 36.00000000000000000 ) ) ;
#33 = LOCAL_TIME ( 10, 21, 4.000000000000000000, #57 ) ;
#34 = DIRECTION ( 'NONE',  ( -3.491481338843133355E-15, 1.224646799147353207E-16, -1.000000000000000000 ) ) ;
#35 = ADVANCED_FACE ( 'NONE', ( #194 ), #53, .T. ) ;
#36 = CARTESIAN_POINT ( 'NONE',  ( 3.491481338843133355E-13, 7.499999999999987566, 100.0000000000000000 ) ) ;
#37 = DIRECTION ( 'NONE',  ( 4.275831445896958607E-31, 1.000000000000000000, 1.224646799147353207E-16 ) ) ;
#38 = VERTEX_POINT ( 'NONE', #210 ) ;
#39 = COORDINATED_UNIVERSAL_TIME_OFFSET ( 1, 0, .AHEAD. ) ;
#40 = APPROVAL_DATE_TIME ( #223, #178 ) ;
#41 = APPROVAL_PERSON_ORGANIZATION ( #43, #178, #110 ) ;
#42 = APPROVAL_STATUS ( 'not_yet_approved' ) ;
#43 = PERSON_AND_ORGANIZATION ( #61, #47 ) ;
#44 = CLOSED_SHELL ( 'NONE', ( #209, #3, #99, #14 ) ) ;
#45 = APPROVAL_PERSON_ORGANIZATION ( #166, #24, #196 ) ;
#46 = PLANE ( 'NONE',  #73 ) ;
#47 = ORGANIZATION ( 'UNSPECIFIED', 'UNSPECIFIED', '' ) ;
#48 = CC_DESIGN_PERSON_AND_ORGANIZATION_ASSIGNMENT ( #26, #164, ( #130 ) ) ;
#49 = CARTESIAN_POINT ( 'NONE',  ( -1.710332578358783092E-30, 5.999039130647430431E-32, -4.898587196589412829E-16 ) ) ;
#50 = DIRECTION ( 'NONE',  ( -4.275831445896958607E-31, -1.000000000000000000, -1.224646799147353207E-16 ) ) ;
#51 = AXIS2_PLACEMENT_3D ( 'NONE', #176, #55, #21 ) ;
#52 = ADVANCED_FACE ( 'NONE', ( #68, #190 ), #120, .T. ) ;
#53 = PLANE ( 'NONE',  #1 ) ;
#54 = DIRECTION ( 'NONE',  ( -4.212971753347078429E-31, -1.000000000000000000, -1.219727444046192488E-16 ) ) ;
#55 = DIRECTION ( 'NONE',  ( -3.491481338843133355E-15, 1.224646799147353207E-16, -1.000000000000000000 ) ) ;
#56 = CIRCLE ( 'NONE', #182, 8.000000000000000000 ) ;
#57 = COORDINATED_UNIVERSAL_TIME_OFFSET ( 1, 0, .AHEAD. ) ;
#58 = COORDINATED_UNIVERSAL_TIME_OFFSET ( 1, 0, .AHEAD. ) ;
#59 = PERSON_AND_ORGANIZATION ( #61, #47 ) ;
#60 = AXIS2_PLACEMENT_3D ( 'NONE', #9, #139, #122 ) ;
#61 = PERSON ( 'UNSPECIFIED', 'UNSPECIFIED', 'UNSPECIFIED', ('UNSPECIFIED'), ('UNSPECIFIED'), ('UNSPECIFIED') ) ;
#62 = ADVANCED_FACE ( 'NONE', ( #175 ), #67, .T. ) ;
#63 = PRODUCT_DEFINITION_SHAPE ( 'NONE', 'NONE',  #130 ) ;
#64 = ORIENTED_EDGE ( 'NONE', *, *, #71, .F. ) ;
#65 = EDGE_LOOP ( 'NONE', ( #79 ) ) ;
#66 = CARTESIAN_POINT ( 'NONE',  ( 1.256933281983528008E-13, -4.408728476930470856E-15, 36.00000000000000000 ) ) ;
#67 = PLANE ( 'NONE',  #22 ) ;
#68 = FACE_BOUND ( 'NONE', #65, .T. ) ;
#69 = CIRCLE ( 'NONE', #78, 7.799999999999999822 ) ;
#70 = DIRECTION ( 'NONE',  ( 3.491481338843133355E-15, -1.224646799147353207E-16, 1.000000000000000000 ) ) ;
#71 = EDGE_CURVE ( 'NONE', #142, #142, #206, .T. ) ;
#72 = FACE_OUTER_BOUND ( 'NONE', #149, .T. ) ;
#73 = AXIS2_PLACEMENT_3D ( 'NONE', #160, #215, #188 ) ;
#74 = PERSON_AND_ORGANIZATION ( #61, #47 ) ;
#75 = APPLICATION_PROTOCOL_DEFINITION ( 'international standard', 'config_control_design', 1994, #197 ) ;
#76 =( NAMED_UNIT ( * ) SI_UNIT ( $, .STERADIAN. ) SOLID_ANGLE_UNIT ( ) );
#77 = ORIENTED_EDGE ( 'NONE', *, *, #116, .T. ) ;
#78 = AXIS2_PLACEMENT_3D ( 'NONE', #195, #83, #157 ) ;
#79 = ORIENTED_EDGE ( 'NONE', *, *, #217, .T. ) ;
#80 = CARTESIAN_POINT ( 'NONE',  ( 6.982962677686239100E-16, -2.435834570415081066E-17, 0.1999999999999992062 ) ) ;
#81 = ADVANCED_BREP_SHAPE_REPRESENTATION ( '57028', ( #208, #132, #112 ), #108 ) ;
#82 = CC_DESIGN_PERSON_AND_ORGANIZATION_ASSIGNMENT ( #13, #221, ( #187 ) ) ;
#83 = DIRECTION ( 'NONE',  ( 3.491481338843133355E-15, -1.217917285207545432E-16, 1.000000000000000000 ) ) ;
#84 = CARTESIAN_POINT ( 'NONE',  ( 1.256933281983528008E-13, 7.999999999999996447, 36.00000000000000000 ) ) ;
#85 = SECURITY_CLASSIFICATION ( '', '', #220 ) ;
#86 = CARTESIAN_POINT ( 'NONE',  ( 6.982962677686239100E-16, -2.435834570415081066E-17, 0.1999999999999992062 ) ) ;
#87 = DIRECTION ( 'NONE',  ( 3.491481338843133355E-15, -1.217917285207545432E-16, 1.000000000000000000 ) ) ;
#88 = CALENDAR_DATE ( 2021, 17, 11 ) ;
#89 = DATE_TIME_ROLE ( 'classification_date' ) ;
#90 = DATE_AND_TIME ( #107, #30 ) ;
#91 = PERSON_AND_ORGANIZATION_ROLE ( 'design_supplier' ) ;
#92 =( NAMED_UNIT ( * ) PLANE_ANGLE_UNIT ( ) SI_UNIT ( $, .RADIAN. ) );
#93 = ORIENTED_EDGE ( 'NONE', *, *, #124, .F. ) ;
#94 = CALENDAR_DATE ( 2021, 17, 11 ) ;
#95 = FACE_OUTER_BOUND ( 'NONE', #151, .T. ) ;
#96 = CC_DESIGN_PERSON_AND_ORGANIZATION_ASSIGNMENT ( #27, #126, ( #85 ) ) ;
#97 = ORIENTED_EDGE ( 'NONE', *, *, #71, .T. ) ;
#98 = ORIENTED_EDGE ( 'NONE', *, *, #15, .F. ) ;
#99 = ADVANCED_FACE ( 'NONE', ( #158, #104 ), #184, .T. ) ;
#100 = AXIS2_PLACEMENT_3D ( 'NONE', #186, #138, #31 ) ;
#101 = DIRECTION ( 'NONE',  ( -4.212971753347078429E-31, -1.000000000000000000, -1.219727444046192488E-16 ) ) ;
#102 = DIRECTION ( 'NONE',  ( 3.491481338843133355E-15, -1.224646799147353207E-16, 1.000000000000000000 ) ) ;
#103 = VERTEX_POINT ( 'NONE', #105 ) ;
#104 = FACE_OUTER_BOUND ( 'NONE', #167, .T. ) ;
#105 = CARTESIAN_POINT ( 'NONE',  ( 1.256933281983528008E-13, 7.999999999999996447, 36.00000000000000000 ) ) ;
#106 = DIRECTION ( 'NONE',  ( 0.0000000000000000000, 0.0000000000000000000, 1.000000000000000000 ) ) ;
#107 = CALENDAR_DATE ( 2021, 17, 11 ) ;
#108 =( GEOMETRIC_REPRESENTATION_CONTEXT ( 3 ) GLOBAL_UNCERTAINTY_ASSIGNED_CONTEXT ( ( #155 ) ) GLOBAL_UNIT_ASSIGNED_CONTEXT ( ( #109, #92, #76 ) ) REPRESENTATION_CONTEXT ( 'NONE', 'WORKASPACE' ) );
#109 =( LENGTH_UNIT ( ) NAMED_UNIT ( * ) SI_UNIT ( .MILLI., .METRE. ) );
#110 = APPROVAL_ROLE ( '' ) ;
#111 = DATE_AND_TIME ( #145, #141 ) ;
#112 = AXIS2_PLACEMENT_3D ( 'NONE', #181, #106, #165 ) ;
#113 = APPROVAL_DATE_TIME ( #204, #24 ) ;
#114 = EDGE_LOOP ( 'NONE', ( #97 ) ) ;
#115 = CC_DESIGN_SECURITY_CLASSIFICATION ( #85, ( #7 ) ) ;
#116 = EDGE_CURVE ( 'NONE', #103, #103, #189, .T. ) ;
#117 = EDGE_LOOP ( 'NONE', ( #168 ) ) ;
#118 = DIRECTION ( 'NONE',  ( -3.491481338843133355E-15, 1.224646799147353207E-16, -1.000000000000000000 ) ) ;
#119 = CC_DESIGN_DATE_AND_TIME_ASSIGNMENT ( #90, #89, ( #85 ) ) ;
#120 = CONICAL_SURFACE ( 'NONE', #198, 8.000000000000000000, 0.7853981633974492782 ) ;
#121 = DIRECTION ( 'NONE',  ( 0.0000000000000000000, 1.000000000000000000, 0.0000000000000000000 ) ) ;
#122 = DIRECTION ( 'NONE',  ( 4.275831445896958607E-31, 1.000000000000000000, 1.224646799147353207E-16 ) ) ;
#123 = CARTESIAN_POINT ( 'NONE',  ( 3.474023932148917752E-13, -1.218523565151616460E-14, 99.50000000000000000 ) ) ;
#124 = EDGE_CURVE ( 'NONE', #19, #19, #214, .T. ) ;
#125 = DIRECTION ( 'NONE',  ( 3.491481338843133355E-15, -1.217917285207545432E-16, 1.000000000000000000 ) ) ;
#126 = PERSON_AND_ORGANIZATION_ROLE ( 'classification_officer' ) ;
#127 = CALENDAR_DATE ( 2021, 17, 11 ) ;
#128 = APPROVAL_PERSON_ORGANIZATION ( #59, #135, #200 ) ;
#129 = APPROVAL_STATUS ( 'not_yet_approved' ) ;
#130 = PRODUCT_DEFINITION ( 'UNKNOWN', '', #7, #211 ) ;
#131 = COORDINATED_UNIVERSAL_TIME_OFFSET ( 1, 0, .AHEAD. ) ;
#132 = MANIFOLD_SOLID_BREP ( 'Corps-Déplacer/Copier1[2]', #169 ) ;
#133 = EDGE_LOOP ( 'NONE', ( #77 ) ) ;
#134 = CIRCLE ( 'NONE', #162, 8.000000000000000000 ) ;
#135 = APPROVAL ( #42, 'UNSPECIFIED' ) ;
#136 = FACE_OUTER_BOUND ( 'NONE', #4, .T. ) ;
#137 = LOCAL_TIME ( 10, 21, 4.000000000000000000, #39 ) ;
#138 = DIRECTION ( 'NONE',  ( -3.491481338843133355E-15, 1.224646799147353207E-16, -1.000000000000000000 ) ) ;
#139 = DIRECTION ( 'NONE',  ( -3.491481338843133355E-15, 1.224646799147353207E-16, -1.000000000000000000 ) ) ;
#140 = CARTESIAN_POINT ( 'NONE',  ( 3.491481338843133355E-13, -1.224646799147353217E-14, 100.0000000000000000 ) ) ;
#141 = LOCAL_TIME ( 10, 21, 4.000000000000000000, #11 ) ;
#142 = VERTEX_POINT ( 'NONE', #36 ) ;
#143 = CARTESIAN_POINT ( 'NONE',  ( 3.474023932148917752E-13, 7.999999999999988454, 99.50000000000000000 ) ) ;
#144 = DIRECTION ( 'NONE',  ( -3.491481338843133355E-15, 1.224646799147353207E-16, -1.000000000000000000 ) ) ;
#145 = CALENDAR_DATE ( 2021, 17, 11 ) ;
#146 = PERSON_AND_ORGANIZATION ( #61, #47 ) ;
#147 = DATE_TIME_ROLE ( 'creation_date' ) ;
#148 = SHAPE_DEFINITION_REPRESENTATION ( #63, #81 ) ;
#149 = EDGE_LOOP ( 'NONE', ( #2 ) ) ;
#150 = AXIS2_PLACEMENT_3D ( 'NONE', #192, #70, #50 ) ;
#151 = EDGE_LOOP ( 'NONE', ( #29 ) ) ;
#152 = CC_DESIGN_DATE_AND_TIME_ASSIGNMENT ( #111, #147, ( #130 ) ) ;
#153 = AXIS2_PLACEMENT_3D ( 'NONE', #218, #34, #173 ) ;
#154 = EDGE_LOOP ( 'NONE', ( #98 ) ) ;
#155 = UNCERTAINTY_MEASURE_WITH_UNIT (LENGTH_MEASURE( 1.000000000000000082E-05 ), #109, 'distance_accuracy_value', 'NONE');
#156 = DIRECTION ( 'NONE',  ( -3.491481338843133355E-15, 1.224646799147353207E-16, -1.000000000000000000 ) ) ;
#157 = DIRECTION ( 'NONE',  ( -4.252335473556634944E-31, -1.000000000000000000, -1.217917285207545679E-16 ) ) ;
#158 = FACE_BOUND ( 'NONE', #114, .T. ) ;
#159 = FACE_OUTER_BOUND ( 'NONE', #117, .T. ) ;
#160 = CARTESIAN_POINT ( 'NONE',  ( 3.491481338843133355E-13, 5.624099184981947966E-32, 100.0000000000000000 ) ) ;
#161 = CC_DESIGN_PERSON_AND_ORGANIZATION_ASSIGNMENT ( #146, #91, ( #7 ) ) ;
#162 = AXIS2_PLACEMENT_3D ( 'NONE', #86, #87, #54 ) ;
#163 = LOCAL_TIME ( 10, 21, 4.000000000000000000, #131 ) ;
#164 = PERSON_AND_ORGANIZATION_ROLE ( 'creator' ) ;
#165 = DIRECTION ( 'NONE',  ( 1.000000000000000000, 0.0000000000000000000, 0.0000000000000000000 ) ) ;
#166 = PERSON_AND_ORGANIZATION ( #61, #47 ) ;
#167 = EDGE_LOOP ( 'NONE', ( #185 ) ) ;
#168 = ORIENTED_EDGE ( 'NONE', *, *, #15, .T. ) ;
#169 = CLOSED_SHELL ( 'NONE', ( #193, #35, #52, #62 ) ) ;
#170 = AXIS2_PLACEMENT_3D ( 'NONE', #66, #144, #17 ) ;
#171 = DIRECTION ( 'NONE',  ( -4.275831445896958607E-31, -1.000000000000000000, -1.224646799147353207E-16 ) ) ;
#172 = DIRECTION ( 'NONE',  ( 0.0000000000000000000, 1.000000000000000000, 0.0000000000000000000 ) ) ;
#173 = DIRECTION ( 'NONE',  ( 0.0000000000000000000, 1.000000000000000000, 0.0000000000000000000 ) ) ;
#174 = CC_DESIGN_APPROVAL ( #135, ( #7 ) ) ;
#175 = FACE_OUTER_BOUND ( 'NONE', #28, .T. ) ;
#176 = CARTESIAN_POINT ( 'NONE',  ( 1.256933281983528008E-13, -4.408728476930470856E-15, 36.00000000000000000 ) ) ;
#177 = APPLICATION_CONTEXT ( 'configuration controlled 3d designs of mechanical parts and assemblies' ) ;
#178 = APPROVAL ( #129, 'UNSPECIFIED' ) ;
#179 = MECHANICAL_CONTEXT ( 'NONE', #177, 'mechanical' ) ;
#180 = PERSON_AND_ORGANIZATION_ROLE ( 'creator' ) ;
#181 = CARTESIAN_POINT ( 'NONE',  ( 0.0000000000000000000, 0.0000000000000000000, 0.0000000000000000000 ) ) ;
#182 = AXIS2_PLACEMENT_3D ( 'NONE', #123, #156, #172 ) ;
#183 = ORIENTED_EDGE ( 'NONE', *, *, #116, .F. ) ;
#184 = CONICAL_SURFACE ( 'NONE', #153, 8.000000000000000000, 0.7853981633974482790 ) ;
#185 = ORIENTED_EDGE ( 'NONE', *, *, #191, .F. ) ;
#186 = CARTESIAN_POINT ( 'NONE',  ( 0.0000000000000000000, 0.0000000000000000000, 0.0000000000000000000 ) ) ;
#187 = PRODUCT ( '57028', '57028', '', ( #179 ) ) ;
#188 = DIRECTION ( 'NONE',  ( 4.275831445896958607E-31, 1.000000000000000000, 1.224646799147353207E-16 ) ) ;
#189 = CIRCLE ( 'NONE', #51, 8.000000000000001776 ) ;
#190 = FACE_OUTER_BOUND ( 'NONE', #154, .T. ) ;
#191 = EDGE_CURVE ( 'NONE', #8, #8, #56, .T. ) ;
#192 = CARTESIAN_POINT ( 'NONE',  ( 1.256933281983528008E-13, 5.999039130647424958E-32, 36.00000000000000000 ) ) ;
#193 = ADVANCED_FACE ( 'NONE', ( #20, #159 ), #6, .T. ) ;
#194 = FACE_OUTER_BOUND ( 'NONE', #203, .T. ) ;
#195 = CARTESIAN_POINT ( 'NONE',  ( -3.316821669374175431E-30, 1.156991560613707582E-31, -9.499754824618855260E-16 ) ) ;
#196 = APPROVAL_ROLE ( '' ) ;
#197 = APPLICATION_CONTEXT ( 'configuration controlled 3d designs of mechanical parts and assemblies' ) ;
#198 = AXIS2_PLACEMENT_3D ( 'NONE', #80, #125, #101 ) ;
#199 = APPROVAL_DATE_TIME ( #25, #135 ) ;
#200 = APPROVAL_ROLE ( '' ) ;
#201 = CC_DESIGN_PERSON_AND_ORGANIZATION_ASSIGNMENT ( #74, #180, ( #7 ) ) ;
#202 = ORIENTED_EDGE ( 'NONE', *, *, #217, .F. ) ;
#203 = EDGE_LOOP ( 'NONE', ( #183 ) ) ;
#204 = DATE_AND_TIME ( #94, #137 ) ;
#205 = CYLINDRICAL_SURFACE ( 'NONE', #100, 8.000000000000000000 ) ;
#206 = CIRCLE ( 'NONE', #23, 7.500000000000000000 ) ;
#207 = EDGE_LOOP ( 'NONE', ( #64 ) ) ;
#208 = MANIFOLD_SOLID_BREP ( 'Corps-Déplacer/Copier1[1]', #44 ) ;
#209 = ADVANCED_FACE ( 'NONE', ( #72 ), #18, .F. ) ;
#210 = CARTESIAN_POINT ( 'NONE',  ( 6.982962677686204588E-16, -8.000000000000000000, 0.1999999999999982070 ) ) ;
#211 = DESIGN_CONTEXT ( 'detailed design', #197, 'design' ) ;
#212 = DIRECTION ( 'NONE',  ( -3.491481338843133355E-15, 1.224646799147353207E-16, -1.000000000000000000 ) ) ;
#213 = PRODUCT_RELATED_PRODUCT_CATEGORY ( 'detail', '', ( #187 ) ) ;
#214 = CIRCLE ( 'NONE', #170, 8.000000000000001776 ) ;
#215 = DIRECTION ( 'NONE',  ( -3.491481338843133355E-15, 1.224646799147353207E-16, -1.000000000000000000 ) ) ;
#216 = VERTEX_POINT ( 'NONE', #219 ) ;
#217 = EDGE_CURVE ( 'NONE', #216, #216, #69, .T. ) ;
#218 = CARTESIAN_POINT ( 'NONE',  ( 3.474023932148917752E-13, -1.218523565151616460E-14, 99.50000000000000000 ) ) ;
#219 = CARTESIAN_POINT ( 'NONE',  ( -6.633643338748350863E-30, -7.799999999999999822, -1.899950964923771052E-15 ) ) ;
#220 = SECURITY_CLASSIFICATION_LEVEL ( 'unclassified' ) ;
#221 = PERSON_AND_ORGANIZATION_ROLE ( 'design_owner' ) ;
#222 = CC_DESIGN_APPROVAL ( #24, ( #85 ) ) ;
#223 = DATE_AND_TIME ( #88, #163 ) ;
ENDSEC;
END-ISO-10303-21;
