ISO-10303-21;
HEADER;
FILE_DESCRIPTION (( 'STEP AP203' ),
    '1' );
FILE_NAME ('57027.step',
    '2021-11-17T09:21:04',
    ( '' ),
    ( '' ),
    'SwSTEP 2.0',
    'SolidWorks 2019',
    '' );
FILE_SCHEMA (( 'CONFIG_CONTROL_DESIGN' ));
ENDSEC;

DATA;
#1 = CYLINDRICAL_SURFACE ( 'NONE', #157, 6.999999999999999112 ) ;
#2 = AXIS2_PLACEMENT_3D ( 'NONE', #123, #141, #108 ) ;
#3 = CALENDAR_DATE ( 2021, 17, 11 ) ;
#4 = APPROVAL_STATUS ( 'not_yet_approved' ) ;
#5 = PERSON_AND_ORGANIZATION ( #35, #64 ) ;
#6 = PERSON_AND_ORGANIZATION ( #35, #64 ) ;
#7 = CIRCLE ( 'NONE', #2, 6.799999999999998934 ) ;
#8 = APPROVAL ( #147, 'UNSPECIFIED' ) ;
#9 = CALENDAR_DATE ( 2021, 17, 11 ) ;
#10 = DIRECTION ( 'NONE',  ( -3.491481338843133355E-15, 1.224646799147353207E-16, -1.000000000000000000 ) ) ;
#11 = ORIENTED_EDGE ( 'NONE', *, *, #143, .T. ) ;
#12 = CARTESIAN_POINT ( 'NONE',  ( 6.982962677686213462E-16, -7.000000000000000000, 0.1999999999999984845 ) ) ;
#13 = DIRECTION ( 'NONE',  ( 3.491481338843133355E-15, -1.217917285207545432E-16, 1.000000000000000000 ) ) ;
#14 = DIRECTION ( 'NONE',  ( -3.491481338843133355E-15, 1.224646799147353207E-16, -1.000000000000000000 ) ) ;
#15 = AXIS2_PLACEMENT_3D ( 'NONE', #26, #150, #84 ) ;
#16 = LOCAL_TIME ( 10, 21, 4.000000000000000000, #111 ) ;
#17 = DIRECTION ( 'NONE',  ( 3.491481338843133355E-15, -1.224646799147353207E-16, 1.000000000000000000 ) ) ;
#18 = APPLICATION_CONTEXT ( 'configuration controlled 3d designs of mechanical parts and assemblies' ) ;
#19 = FACE_OUTER_BOUND ( 'NONE', #148, .T. ) ;
#20 = EDGE_CURVE ( 'NONE', #120, #120, #151, .T. ) ;
#21 = APPROVAL_ROLE ( '' ) ;
#22 = ADVANCED_FACE ( 'NONE', ( #113 ), #182, .F. ) ;
#23 = DATE_TIME_ROLE ( 'creation_date' ) ;
#24 = APPROVAL_PERSON_ORGANIZATION ( #110, #8, #179 ) ;
#25 = COORDINATED_UNIVERSAL_TIME_OFFSET ( 1, 0, .AHEAD. ) ;
#26 = CARTESIAN_POINT ( 'NONE',  ( 2.880472104545584703E-13, -1.010333609296566392E-14, 82.50000000000000000 ) ) ;
#27 = DATE_AND_TIME ( #97, #83 ) ;
#28 = EDGE_LOOP ( 'NONE', ( #197 ) ) ;
#29 =( GEOMETRIC_REPRESENTATION_CONTEXT ( 3 ) GLOBAL_UNCERTAINTY_ASSIGNED_CONTEXT ( ( #184 ) ) GLOBAL_UNIT_ASSIGNED_CONTEXT ( ( #164, #95, #112 ) ) REPRESENTATION_CONTEXT ( 'NONE', 'WORKASPACE' ) );
#30 = PRODUCT_DEFINITION_SHAPE ( 'NONE', 'NONE',  #204 ) ;
#31 = CARTESIAN_POINT ( 'NONE',  ( -5.783176244037022823E-30, -6.799999999999998934, -1.656367507882261473E-15 ) ) ;
#32 = AXIS2_PLACEMENT_3D ( 'NONE', #202, #53, #190 ) ;
#33 = DIRECTION ( 'NONE',  ( -3.491481338843133355E-15, 1.224646799147353207E-16, -1.000000000000000000 ) ) ;
#34 = CARTESIAN_POINT ( 'NONE',  ( 9.426999614876460059E-14, 5.249159239316496154E-32, 27.00000000000000000 ) ) ;
#35 = PERSON ( 'UNSPECIFIED', 'UNSPECIFIED', 'UNSPECIFIED', ('UNSPECIFIED'), ('UNSPECIFIED'), ('UNSPECIFIED') ) ;
#36 = APPLICATION_CONTEXT ( 'configuration controlled 3d designs of mechanical parts and assemblies' ) ;
#37 = FACE_BOUND ( 'NONE', #186, .T. ) ;
#38 = PRODUCT_DEFINITION_FORMATION_WITH_SPECIFIED_SOURCE ( 'ANY', '', #156, .NOT_KNOWN. ) ;
#39 = AXIS2_PLACEMENT_3D ( 'NONE', #94, #76, #142 ) ;
#40 = FACE_OUTER_BOUND ( 'NONE', #201, .T. ) ;
#41 = PERSON_AND_ORGANIZATION_ROLE ( 'creator' ) ;
#42 = EDGE_CURVE ( 'NONE', #172, #172, #170, .T. ) ;
#43 = APPROVAL_DATE_TIME ( #193, #8 ) ;
#44 = CALENDAR_DATE ( 2021, 17, 11 ) ;
#45 = ADVANCED_FACE ( 'NONE', ( #138 ), #90, .F. ) ;
#46 = PERSON_AND_ORGANIZATION_ROLE ( 'creator' ) ;
#47 = DATE_AND_TIME ( #9, #89 ) ;
#48 = EDGE_LOOP ( 'NONE', ( #166 ) ) ;
#49 = EDGE_LOOP ( 'NONE', ( #101 ) ) ;
#50 = APPROVAL_DATE_TIME ( #27, #183 ) ;
#51 = ORIENTED_EDGE ( 'NONE', *, *, #82, .F. ) ;
#52 = CC_DESIGN_DATE_AND_TIME_ASSIGNMENT ( #162, #23, ( #204 ) ) ;
#53 = DIRECTION ( 'NONE',  ( -3.491481338843133355E-15, 1.224646799147353207E-16, -1.000000000000000000 ) ) ;
#54 = CARTESIAN_POINT ( 'NONE',  ( 9.426999614876460059E-14, 5.249159239316496154E-32, 27.00000000000000000 ) ) ;
#55 = CARTESIAN_POINT ( 'NONE',  ( 6.982962677686243045E-16, -2.435834570415082915E-17, 0.1999999999999993450 ) ) ;
#56 = CYLINDRICAL_SURFACE ( 'NONE', #221, 6.999999999999999112 ) ;
#57 = CARTESIAN_POINT ( 'NONE',  ( 9.426999614876460059E-14, -3.306546357697853733E-15, 27.00000000000000000 ) ) ;
#58 = AXIS2_PLACEMENT_3D ( 'NONE', #98, #10, #153 ) ;
#59 = AXIS2_PLACEMENT_3D ( 'NONE', #57, #14, #160 ) ;
#60 = PRODUCT_RELATED_PRODUCT_CATEGORY ( 'detail', '', ( #156 ) ) ;
#61 = APPROVAL_DATE_TIME ( #195, #130 ) ;
#62 = MANIFOLD_SOLID_BREP ( 'Corps-Déplacer/Copier1[1]', #88 ) ;
#63 = APPLICATION_PROTOCOL_DEFINITION ( 'international standard', 'config_control_design', 1994, #18 ) ;
#64 = ORGANIZATION ( 'UNSPECIFIED', 'UNSPECIFIED', '' ) ;
#65 = COORDINATED_UNIVERSAL_TIME_OFFSET ( 1, 0, .AHEAD. ) ;
#66 = SHAPE_DEFINITION_REPRESENTATION ( #30, #165 ) ;
#67 = CC_DESIGN_SECURITY_CLASSIFICATION ( #206, ( #38 ) ) ;
#68 = ORIENTED_EDGE ( 'NONE', *, *, #115, .T. ) ;
#69 = FACE_OUTER_BOUND ( 'NONE', #198, .T. ) ;
#70 = FACE_OUTER_BOUND ( 'NONE', #48, .T. ) ;
#71 = DIRECTION ( 'NONE',  ( -4.275831445896958607E-31, -1.000000000000000000, -1.224646799147353207E-16 ) ) ;
#72 = DIRECTION ( 'NONE',  ( -3.491481338843133355E-15, 1.224646799147353207E-16, -1.000000000000000000 ) ) ;
#73 = CC_DESIGN_PERSON_AND_ORGANIZATION_ASSIGNMENT ( #161, #41, ( #38 ) ) ;
#74 = DIRECTION ( 'NONE',  ( -3.491481338843133355E-15, 1.224646799147353207E-16, -1.000000000000000000 ) ) ;
#75 = AXIS2_PLACEMENT_3D ( 'NONE', #220, #219, #188 ) ;
#76 = DIRECTION ( 'NONE',  ( 0.0000000000000000000, 0.0000000000000000000, 1.000000000000000000 ) ) ;
#77 = CC_DESIGN_DATE_AND_TIME_ASSIGNMENT ( #47, #146, ( #206 ) ) ;
#78 = PERSON_AND_ORGANIZATION_ROLE ( 'classification_officer' ) ;
#79 = LOCAL_TIME ( 10, 21, 4.000000000000000000, #127 ) ;
#80 = PERSON_AND_ORGANIZATION_ROLE ( 'design_owner' ) ;
#81 = ADVANCED_FACE ( 'NONE', ( #37, #207 ), #152, .T. ) ;
#82 = EDGE_CURVE ( 'NONE', #87, #87, #196, .T. ) ;
#83 = LOCAL_TIME ( 10, 21, 4.000000000000000000, #25 ) ;
#84 = DIRECTION ( 'NONE',  ( 0.0000000000000000000, 1.000000000000000000, 0.0000000000000000000 ) ) ;
#85 = VERTEX_POINT ( 'NONE', #93 ) ;
#86 = DIRECTION ( 'NONE',  ( 4.275831445896958607E-31, 1.000000000000000000, 1.224646799147353207E-16 ) ) ;
#87 = VERTEX_POINT ( 'NONE', #158 ) ;
#88 = CLOSED_SHELL ( 'NONE', ( #45, #167, #216, #22 ) ) ;
#89 = LOCAL_TIME ( 10, 21, 4.000000000000000000, #65 ) ;
#90 = PLANE ( 'NONE',  #103 ) ;
#91 = CC_DESIGN_PERSON_AND_ORGANIZATION_ASSIGNMENT ( #109, #46, ( #204 ) ) ;
#92 = CARTESIAN_POINT ( 'NONE',  ( 9.426999614876460059E-14, -3.306546357697853733E-15, 27.00000000000000000 ) ) ;
#93 = CARTESIAN_POINT ( 'NONE',  ( 9.426999614876460059E-14, 6.999999999999995559, 27.00000000000000000 ) ) ;
#94 = CARTESIAN_POINT ( 'NONE',  ( 0.0000000000000000000, 0.0000000000000000000, 0.0000000000000000000 ) ) ;
#95 =( NAMED_UNIT ( * ) PLANE_ANGLE_UNIT ( ) SI_UNIT ( $, .RADIAN. ) );
#96 = CONICAL_SURFACE ( 'NONE', #32, 6.999999999999999112, 0.7853981633974466137 ) ;
#97 = CALENDAR_DATE ( 2021, 17, 11 ) ;
#98 = CARTESIAN_POINT ( 'NONE',  ( 2.897929511239800811E-13, 4.874219293651022994E-32, 83.00000000000000000 ) ) ;
#99 = ORIENTED_EDGE ( 'NONE', *, *, #42, .T. ) ;
#100 = DESIGN_CONTEXT ( 'detailed design', #18, 'design' ) ;
#101 = ORIENTED_EDGE ( 'NONE', *, *, #115, .F. ) ;
#102 = ORIENTED_EDGE ( 'NONE', *, *, #20, .T. ) ;
#103 = AXIS2_PLACEMENT_3D ( 'NONE', #34, #159, #71 ) ;
#104 = CARTESIAN_POINT ( 'NONE',  ( 2.897929511239800811E-13, 6.499999999999990230, 83.00000000000000000 ) ) ;
#105 = CARTESIAN_POINT ( 'NONE',  ( 2.880472104545584703E-13, 6.999999999999988454, 82.50000000000000000 ) ) ;
#106 = DIRECTION ( 'NONE',  ( 4.275831445896958607E-31, 1.000000000000000000, 1.224646799147353207E-16 ) ) ;
#107 = DIRECTION ( 'NONE',  ( -3.491481338843133355E-15, 1.224646799147353207E-16, -1.000000000000000000 ) ) ;
#108 = DIRECTION ( 'NONE',  ( -4.252335473556634944E-31, -1.000000000000000000, -1.217917285207545432E-16 ) ) ;
#109 = PERSON_AND_ORGANIZATION ( #35, #64 ) ;
#110 = PERSON_AND_ORGANIZATION ( #35, #64 ) ;
#111 = COORDINATED_UNIVERSAL_TIME_OFFSET ( 1, 0, .AHEAD. ) ;
#112 =( NAMED_UNIT ( * ) SI_UNIT ( $, .STERADIAN. ) SOLID_ANGLE_UNIT ( ) );
#113 = FACE_OUTER_BOUND ( 'NONE', #116, .T. ) ;
#114 = EDGE_LOOP ( 'NONE', ( #132 ) ) ;
#115 = EDGE_CURVE ( 'NONE', #187, #187, #7, .T. ) ;
#116 = EDGE_LOOP ( 'NONE', ( #133 ) ) ;
#117 = CLOSED_SHELL ( 'NONE', ( #139, #178, #81, #214 ) ) ;
#118 = AXIS2_PLACEMENT_3D ( 'NONE', #54, #17, #209 ) ;
#119 = CC_DESIGN_PERSON_AND_ORGANIZATION_ASSIGNMENT ( #144, #213, ( #38 ) ) ;
#120 = VERTEX_POINT ( 'NONE', #105 ) ;
#121 = AXIS2_PLACEMENT_3D ( 'NONE', #173, #223, #140 ) ;
#122 = DIRECTION ( 'NONE',  ( 4.275831445896958607E-31, 1.000000000000000000, 1.224646799147353207E-16 ) ) ;
#123 = CARTESIAN_POINT ( 'NONE',  ( -2.891588122018511411E-30, 1.008659309252975740E-31, -8.281837539411307363E-16 ) ) ;
#124 = CARTESIAN_POINT ( 'NONE',  ( 0.0000000000000000000, 0.0000000000000000000, 0.0000000000000000000 ) ) ;
#125 = CARTESIAN_POINT ( 'NONE',  ( -1.496541006063935600E-30, 5.249159239316501627E-32, -4.286263797015736595E-16 ) ) ;
#126 = SECURITY_CLASSIFICATION_LEVEL ( 'unclassified' ) ;
#127 = COORDINATED_UNIVERSAL_TIME_OFFSET ( 1, 0, .AHEAD. ) ;
#128 = MECHANICAL_CONTEXT ( 'NONE', #36, 'mechanical' ) ;
#129 = PERSON_AND_ORGANIZATION ( #35, #64 ) ;
#130 = APPROVAL ( #4, 'UNSPECIFIED' ) ;
#131 = CIRCLE ( 'NONE', #59, 6.999999999999999112 ) ;
#132 = ORIENTED_EDGE ( 'NONE', *, *, #143, .F. ) ;
#133 = ORIENTED_EDGE ( 'NONE', *, *, #42, .F. ) ;
#134 = AXIS2_PLACEMENT_3D ( 'NONE', #92, #107, #155 ) ;
#135 = ORIENTED_EDGE ( 'NONE', *, *, #191, .F. ) ;
#136 = FACE_OUTER_BOUND ( 'NONE', #168, .T. ) ;
#137 = CIRCLE ( 'NONE', #121, 7.000000000000000000 ) ;
#138 = FACE_OUTER_BOUND ( 'NONE', #28, .T. ) ;
#139 = ADVANCED_FACE ( 'NONE', ( #70, #69 ), #1, .T. ) ;
#140 = DIRECTION ( 'NONE',  ( -4.264559162571736407E-31, -1.000000000000000000, -1.200366690966094160E-16 ) ) ;
#141 = DIRECTION ( 'NONE',  ( 3.491481338843133355E-15, -1.217917285207545432E-16, 1.000000000000000000 ) ) ;
#142 = DIRECTION ( 'NONE',  ( 1.000000000000000000, 0.0000000000000000000, 0.0000000000000000000 ) ) ;
#143 = EDGE_CURVE ( 'NONE', #171, #171, #137, .T. ) ;
#144 = PERSON_AND_ORGANIZATION ( #35, #64 ) ;
#145 = APPLICATION_PROTOCOL_DEFINITION ( 'international standard', 'config_control_design', 1994, #36 ) ;
#146 = DATE_TIME_ROLE ( 'classification_date' ) ;
#147 = APPROVAL_STATUS ( 'not_yet_approved' ) ;
#148 = EDGE_LOOP ( 'NONE', ( #135 ) ) ;
#149 = EDGE_LOOP ( 'NONE', ( #99 ) ) ;
#150 = DIRECTION ( 'NONE',  ( -3.491481338843133355E-15, 1.224646799147353207E-16, -1.000000000000000000 ) ) ;
#151 = CIRCLE ( 'NONE', #15, 6.999999999999999112 ) ;
#152 = CONICAL_SURFACE ( 'NONE', #200, 7.000000000000000000, 0.7853981633974513876 ) ;
#153 = DIRECTION ( 'NONE',  ( 4.275831445896958607E-31, 1.000000000000000000, 1.224646799147353207E-16 ) ) ;
#154 = CC_DESIGN_PERSON_AND_ORGANIZATION_ASSIGNMENT ( #6, #80, ( #156 ) ) ;
#155 = DIRECTION ( 'NONE',  ( 0.0000000000000000000, 1.000000000000000000, 0.0000000000000000000 ) ) ;
#156 = PRODUCT ( '57027', '57027', '', ( #128 ) ) ;
#157 = AXIS2_PLACEMENT_3D ( 'NONE', #176, #33, #106 ) ;
#158 = CARTESIAN_POINT ( 'NONE',  ( 9.426999614876460059E-14, 6.999999999999995559, 27.00000000000000000 ) ) ;
#159 = DIRECTION ( 'NONE',  ( 3.491481338843133355E-15, -1.224646799147353207E-16, 1.000000000000000000 ) ) ;
#160 = DIRECTION ( 'NONE',  ( 0.0000000000000000000, 1.000000000000000000, 0.0000000000000000000 ) ) ;
#161 = PERSON_AND_ORGANIZATION ( #35, #64 ) ;
#162 = DATE_AND_TIME ( #3, #16 ) ;
#163 = CC_DESIGN_APPROVAL ( #8, ( #38 ) ) ;
#164 =( LENGTH_UNIT ( ) NAMED_UNIT ( * ) SI_UNIT ( .MILLI., .METRE. ) );
#165 = ADVANCED_BREP_SHAPE_REPRESENTATION ( '57027', ( #62, #203, #39 ), #29 ) ;
#166 = ORIENTED_EDGE ( 'NONE', *, *, #191, .T. ) ;
#167 = ADVANCED_FACE ( 'NONE', ( #136, #205 ), #56, .T. ) ;
#168 = EDGE_LOOP ( 'NONE', ( #102 ) ) ;
#169 = EDGE_LOOP ( 'NONE', ( #51 ) ) ;
#170 = CIRCLE ( 'NONE', #75, 6.500000000000000888 ) ;
#171 = VERTEX_POINT ( 'NONE', #12 ) ;
#172 = VERTEX_POINT ( 'NONE', #104 ) ;
#173 = CARTESIAN_POINT ( 'NONE',  ( 6.982962677686243045E-16, -2.435834570415082915E-17, 0.1999999999999993450 ) ) ;
#174 = CC_DESIGN_APPROVAL ( #130, ( #204 ) ) ;
#175 = PLANE ( 'NONE',  #118 ) ;
#176 = CARTESIAN_POINT ( 'NONE',  ( 0.0000000000000000000, 0.0000000000000000000, 0.0000000000000000000 ) ) ;
#177 = CALENDAR_DATE ( 2021, 17, 11 ) ;
#178 = ADVANCED_FACE ( 'NONE', ( #19 ), #175, .T. ) ;
#179 = APPROVAL_ROLE ( '' ) ;
#180 = APPROVAL_STATUS ( 'not_yet_approved' ) ;
#181 = AXIS2_PLACEMENT_3D ( 'NONE', #125, #74, #122 ) ;
#182 = PLANE ( 'NONE',  #58 ) ;
#183 = APPROVAL ( #180, 'UNSPECIFIED' ) ;
#184 = UNCERTAINTY_MEASURE_WITH_UNIT (LENGTH_MEASURE( 1.000000000000000082E-05 ), #164, 'distance_accuracy_value', 'NONE');
#185 = LOCAL_TIME ( 10, 21, 4.000000000000000000, #194 ) ;
#186 = EDGE_LOOP ( 'NONE', ( #68 ) ) ;
#187 = VERTEX_POINT ( 'NONE', #31 ) ;
#188 = DIRECTION ( 'NONE',  ( 0.0000000000000000000, 1.000000000000000000, 0.0000000000000000000 ) ) ;
#189 = DIRECTION ( 'NONE',  ( -4.264559162571736407E-31, -1.000000000000000000, -1.200366690966094160E-16 ) ) ;
#190 = DIRECTION ( 'NONE',  ( 0.0000000000000000000, 1.000000000000000000, 0.0000000000000000000 ) ) ;
#191 = EDGE_CURVE ( 'NONE', #85, #85, #131, .T. ) ;
#192 = FACE_BOUND ( 'NONE', #149, .T. ) ;
#193 = DATE_AND_TIME ( #177, #185 ) ;
#194 = COORDINATED_UNIVERSAL_TIME_OFFSET ( 1, 0, .AHEAD. ) ;
#195 = DATE_AND_TIME ( #44, #79 ) ;
#196 = CIRCLE ( 'NONE', #134, 6.999999999999999112 ) ;
#197 = ORIENTED_EDGE ( 'NONE', *, *, #82, .T. ) ;
#198 = EDGE_LOOP ( 'NONE', ( #11 ) ) ;
#199 = ORIENTED_EDGE ( 'NONE', *, *, #20, .F. ) ;
#200 = AXIS2_PLACEMENT_3D ( 'NONE', #55, #13, #189 ) ;
#201 = EDGE_LOOP ( 'NONE', ( #199 ) ) ;
#202 = CARTESIAN_POINT ( 'NONE',  ( 2.880472104545584703E-13, -1.010333609296566392E-14, 82.50000000000000000 ) ) ;
#203 = MANIFOLD_SOLID_BREP ( 'Corps-Déplacer/Copier1[2]', #117 ) ;
#204 = PRODUCT_DEFINITION ( 'UNKNOWN', '', #38, #100 ) ;
#205 = FACE_OUTER_BOUND ( 'NONE', #169, .T. ) ;
#206 = SECURITY_CLASSIFICATION ( '', '', #126 ) ;
#207 = FACE_OUTER_BOUND ( 'NONE', #114, .T. ) ;
#208 = FACE_OUTER_BOUND ( 'NONE', #49, .T. ) ;
#209 = DIRECTION ( 'NONE',  ( -4.275831445896958607E-31, -1.000000000000000000, -1.224646799147353207E-16 ) ) ;
#210 = APPROVAL_ROLE ( '' ) ;
#211 = PERSON_AND_ORGANIZATION ( #35, #64 ) ;
#212 = CC_DESIGN_APPROVAL ( #183, ( #206 ) ) ;
#213 = PERSON_AND_ORGANIZATION_ROLE ( 'design_supplier' ) ;
#214 = ADVANCED_FACE ( 'NONE', ( #208 ), #222, .T. ) ;
#215 = APPROVAL_PERSON_ORGANIZATION ( #211, #130, #21 ) ;
#216 = ADVANCED_FACE ( 'NONE', ( #192, #40 ), #96, .T. ) ;
#217 = APPROVAL_PERSON_ORGANIZATION ( #129, #183, #210 ) ;
#218 = CC_DESIGN_PERSON_AND_ORGANIZATION_ASSIGNMENT ( #5, #78, ( #206 ) ) ;
#219 = DIRECTION ( 'NONE',  ( -3.491481338843133355E-15, 1.224646799147353207E-16, -1.000000000000000000 ) ) ;
#220 = CARTESIAN_POINT ( 'NONE',  ( 2.897929511239800811E-13, -1.016456843292303150E-14, 83.00000000000000000 ) ) ;
#221 = AXIS2_PLACEMENT_3D ( 'NONE', #124, #72, #86 ) ;
#222 = PLANE ( 'NONE',  #181 ) ;
#223 = DIRECTION ( 'NONE',  ( 3.491481338843133355E-15, -1.217917285207545432E-16, 1.000000000000000000 ) ) ;
ENDSEC;
END-ISO-10303-21;
