ISO-10303-21;
HEADER;
FILE_DESCRIPTION (( 'STEP AP203' ),
    '1' );
FILE_NAME ('57026.step',
    '2021-11-17T09:21:03',
    ( '' ),
    ( '' ),
    'SwSTEP 2.0',
    'SolidWorks 2019',
    '' );
FILE_SCHEMA (( 'CONFIG_CONTROL_DESIGN' ));
ENDSEC;

DATA;
#1 = DIRECTION ( 'NONE',  ( 3.491481338843133355E-15, -1.224646799147353207E-16, 1.000000000000000000 ) ) ;
#2 = DIRECTION ( 'NONE',  ( -4.252335473556634944E-31, -1.000000000000000000, -1.217917285207545432E-16 ) ) ;
#3 = CC_DESIGN_PERSON_AND_ORGANIZATION_ASSIGNMENT ( #58, #93, ( #18 ) ) ;
#4 = CARTESIAN_POINT ( 'NONE',  ( 8.728703347107833388E-14, 5.999999999999996447, 25.00000000000000000 ) ) ;
#5 = AXIS2_PLACEMENT_3D ( 'NONE', #194, #175, #69 ) ;
#6 = DIRECTION ( 'NONE',  ( -3.491481338843133355E-15, 1.224646799147353207E-16, -1.000000000000000000 ) ) ;
#7 = CYLINDRICAL_SURFACE ( 'NONE', #170, 6.000000000000000000 ) ;
#8 = CLOSED_SHELL ( 'NONE', ( #186, #117, #116, #158 ) ) ;
#9 = ORIENTED_EDGE ( 'NONE', *, *, #80, .F. ) ;
#10 = CIRCLE ( 'NONE', #188, 6.000000000000000000 ) ;
#11 = COORDINATED_UNIVERSAL_TIME_OFFSET ( 1, 0, .AHEAD. ) ;
#12 = DIRECTION ( 'NONE',  ( -4.172848212839010723E-31, -1.000000000000000000, -1.219727444046192488E-16 ) ) ;
#13 = COORDINATED_UNIVERSAL_TIME_OFFSET ( 1, 0, .AHEAD. ) ;
#14 = COORDINATED_UNIVERSAL_TIME_OFFSET ( 1, 0, .AHEAD. ) ;
#15 = DIRECTION ( 'NONE',  ( -4.275831445896958607E-31, -1.000000000000000000, -1.224646799147353207E-16 ) ) ;
#16 = CIRCLE ( 'NONE', #47, 6.000000000000000888 ) ;
#17 = DIRECTION ( 'NONE',  ( 3.491481338843133355E-15, -1.217917285207545432E-16, 1.000000000000000000 ) ) ;
#18 = PRODUCT_DEFINITION_FORMATION_WITH_SPECIFIED_SOURCE ( 'ANY', '', #85, .NOT_KNOWN. ) ;
#19 = CARTESIAN_POINT ( 'NONE',  ( -1.282749433769087757E-30, 4.499279347985572824E-32, -3.673940397442059868E-16 ) ) ;
#20 = APPROVAL ( #61, 'UNSPECIFIED' ) ;
#21 = FACE_OUTER_BOUND ( 'NONE', #113, .T. ) ;
#22 = DIRECTION ( 'NONE',  ( 0.0000000000000000000, 1.000000000000000000, 0.0000000000000000000 ) ) ;
#23 = ORIENTED_EDGE ( 'NONE', *, *, #213, .T. ) ;
#24 = DIRECTION ( 'NONE',  ( -3.491481338843133355E-15, 1.224646799147353207E-16, -1.000000000000000000 ) ) ;
#25 = APPROVAL_ROLE ( '' ) ;
#26 = EDGE_LOOP ( 'NONE', ( #178 ) ) ;
#27 = LOCAL_TIME ( 10, 21, 3.000000000000000000, #13 ) ;
#28 = DIRECTION ( 'NONE',  ( 0.0000000000000000000, 0.0000000000000000000, 1.000000000000000000 ) ) ;
#29 = DATE_AND_TIME ( #141, #27 ) ;
#30 = DIRECTION ( 'NONE',  ( 0.0000000000000000000, 1.000000000000000000, 0.0000000000000000000 ) ) ;
#31 = AXIS2_PLACEMENT_3D ( 'NONE', #157, #192, #53 ) ;
#32 = ADVANCED_FACE ( 'NONE', ( #147, #180 ), #185, .T. ) ;
#33 = PRODUCT_DEFINITION_SHAPE ( 'NONE', 'NONE',  #83 ) ;
#34 = AXIS2_PLACEMENT_3D ( 'NONE', #145, #131, #30 ) ;
#35 = FACE_OUTER_BOUND ( 'NONE', #78, .T. ) ;
#36 = FACE_OUTER_BOUND ( 'NONE', #125, .T. ) ;
#37 = EDGE_LOOP ( 'NONE', ( #23 ) ) ;
#38 = CC_DESIGN_PERSON_AND_ORGANIZATION_ASSIGNMENT ( #48, #182, ( #85 ) ) ;
#39 = FACE_OUTER_BOUND ( 'NONE', #43, .T. ) ;
#40 = LOCAL_TIME ( 10, 21, 3.000000000000000000, #14 ) ;
#41 = UNCERTAINTY_MEASURE_WITH_UNIT (LENGTH_MEASURE( 1.000000000000000082E-05 ), #107, 'distance_accuracy_value', 'NONE');
#42 = APPROVAL_DATE_TIME ( #126, #20 ) ;
#43 = EDGE_LOOP ( 'NONE', ( #59 ) ) ;
#44 = SECURITY_CLASSIFICATION_LEVEL ( 'unclassified' ) ;
#45 = CLOSED_SHELL ( 'NONE', ( #132, #100, #32, #123 ) ) ;
#46 = ORIENTED_EDGE ( 'NONE', *, *, #52, .T. ) ;
#47 = AXIS2_PLACEMENT_3D ( 'NONE', #70, #6, #22 ) ;
#48 = PERSON_AND_ORGANIZATION ( #160, #221 ) ;
#49 = CC_DESIGN_PERSON_AND_ORGANIZATION_ASSIGNMENT ( #97, #91, ( #50 ) ) ;
#50 = SECURITY_CLASSIFICATION ( '', '', #44 ) ;
#51 = APPROVAL_PERSON_ORGANIZATION ( #77, #92, #202 ) ;
#52 = EDGE_CURVE ( 'NONE', #206, #206, #62, .T. ) ;
#53 = DIRECTION ( 'NONE',  ( 0.0000000000000000000, 1.000000000000000000, 0.0000000000000000000 ) ) ;
#54 = CARTESIAN_POINT ( 'NONE',  ( 2.880472104545584703E-13, 5.999999999999990230, 82.50000000000000000 ) ) ;
#55 = CARTESIAN_POINT ( 'NONE',  ( 2.897929511239800811E-13, 4.124339402320093095E-32, 83.00000000000000000 ) ) ;
#56 = DIRECTION ( 'NONE',  ( 4.275831445896958607E-31, 1.000000000000000000, 1.224646799147353207E-16 ) ) ;
#57 = CC_DESIGN_SECURITY_CLASSIFICATION ( #50, ( #18 ) ) ;
#58 = PERSON_AND_ORGANIZATION ( #160, #221 ) ;
#59 = ORIENTED_EDGE ( 'NONE', *, *, #80, .T. ) ;
#60 = CC_DESIGN_DATE_AND_TIME_ASSIGNMENT ( #165, #215, ( #83 ) ) ;
#61 = APPROVAL_STATUS ( 'not_yet_approved' ) ;
#62 = CIRCLE ( 'NONE', #34, 5.500000000000000000 ) ;
#63 = CALENDAR_DATE ( 2021, 17, 11 ) ;
#64 = ORIENTED_EDGE ( 'NONE', *, *, #223, .F. ) ;
#65 = APPROVAL_ROLE ( '' ) ;
#66 = FACE_OUTER_BOUND ( 'NONE', #26, .T. ) ;
#67 = CC_DESIGN_APPROVAL ( #92, ( #83 ) ) ;
#68 = LOCAL_TIME ( 10, 21, 3.000000000000000000, #161 ) ;
#69 = DIRECTION ( 'NONE',  ( 0.0000000000000000000, 1.000000000000000000, 0.0000000000000000000 ) ) ;
#70 = CARTESIAN_POINT ( 'NONE',  ( 2.880472104545584703E-13, -1.010333609296566392E-14, 82.50000000000000000 ) ) ;
#71 = CARTESIAN_POINT ( 'NONE',  ( 0.0000000000000000000, 0.0000000000000000000, 0.0000000000000000000 ) ) ;
#72 =( NAMED_UNIT ( * ) SI_UNIT ( $, .STERADIAN. ) SOLID_ANGLE_UNIT ( ) );
#73 = CARTESIAN_POINT ( 'NONE',  ( 6.982962677686244031E-16, -2.435834570415082915E-17, 0.1999999999999993727 ) ) ;
#74 = CARTESIAN_POINT ( 'NONE',  ( 0.0000000000000000000, 0.0000000000000000000, 0.0000000000000000000 ) ) ;
#75 = CC_DESIGN_PERSON_AND_ORGANIZATION_ASSIGNMENT ( #197, #95, ( #83 ) ) ;
#76 = SHAPE_DEFINITION_REPRESENTATION ( #33, #129 ) ;
#77 = PERSON_AND_ORGANIZATION ( #160, #221 ) ;
#78 = EDGE_LOOP ( 'NONE', ( #210 ) ) ;
#79 = PERSON_AND_ORGANIZATION_ROLE ( 'design_supplier' ) ;
#80 = EDGE_CURVE ( 'NONE', #119, #119, #10, .T. ) ;
#81 = CALENDAR_DATE ( 2021, 17, 11 ) ;
#82 = FACE_BOUND ( 'NONE', #106, .T. ) ;
#83 = PRODUCT_DEFINITION ( 'UNKNOWN', '', #18, #212 ) ;
#84 = AXIS2_PLACEMENT_3D ( 'NONE', #88, #139, #2 ) ;
#85 = PRODUCT ( '57026', '57026', '', ( #179 ) ) ;
#86 = DIRECTION ( 'NONE',  ( 4.275831445896959482E-31, 1.000000000000000000, 1.224646799147353207E-16 ) ) ;
#87 = DIRECTION ( 'NONE',  ( -4.275831445896958607E-31, -1.000000000000000000, -1.224646799147353207E-16 ) ) ;
#88 = CARTESIAN_POINT ( 'NONE',  ( -2.466354574662848092E-30, 8.603270578922441165E-32, -7.063920254203763409E-16 ) ) ;
#89 = ORIENTED_EDGE ( 'NONE', *, *, #169, .F. ) ;
#90 = DIRECTION ( 'NONE',  ( 4.275831445896959482E-31, 1.000000000000000000, 1.224646799147353207E-16 ) ) ;
#91 = PERSON_AND_ORGANIZATION_ROLE ( 'classification_officer' ) ;
#92 = APPROVAL ( #130, 'UNSPECIFIED' ) ;
#93 = PERSON_AND_ORGANIZATION_ROLE ( 'creator' ) ;
#94 = CIRCLE ( 'NONE', #84, 5.799999999999999822 ) ;
#95 = PERSON_AND_ORGANIZATION_ROLE ( 'creator' ) ;
#96 = EDGE_LOOP ( 'NONE', ( #9 ) ) ;
#97 = PERSON_AND_ORGANIZATION ( #160, #221 ) ;
#98 = CC_DESIGN_APPROVAL ( #20, ( #18 ) ) ;
#99 = PLANE ( 'NONE',  #112 ) ;
#100 = ADVANCED_FACE ( 'NONE', ( #183 ), #99, .T. ) ;
#101 = AXIS2_PLACEMENT_3D ( 'NONE', #187, #156, #90 ) ;
#102 = CARTESIAN_POINT ( 'NONE',  ( 6.982962677686219379E-16, -6.000000000000000000, 0.1999999999999986233 ) ) ;
#103 =( NAMED_UNIT ( * ) PLANE_ANGLE_UNIT ( ) SI_UNIT ( $, .RADIAN. ) );
#104 = PLANE ( 'NONE',  #205 ) ;
#105 = VERTEX_POINT ( 'NONE', #134 ) ;
#106 = EDGE_LOOP ( 'NONE', ( #46 ) ) ;
#107 =( LENGTH_UNIT ( ) NAMED_UNIT ( * ) SI_UNIT ( .MILLI., .METRE. ) );
#108 = AXIS2_PLACEMENT_3D ( 'NONE', #19, #24, #56 ) ;
#109 = APPLICATION_PROTOCOL_DEFINITION ( 'international standard', 'config_control_design', 1994, #176 ) ;
#110 = DIRECTION ( 'NONE',  ( 1.000000000000000000, 0.0000000000000000000, 0.0000000000000000000 ) ) ;
#111 = EDGE_LOOP ( 'NONE', ( #196 ) ) ;
#112 = AXIS2_PLACEMENT_3D ( 'NONE', #167, #153, #15 ) ;
#113 = EDGE_LOOP ( 'NONE', ( #143 ) ) ;
#114 = DIRECTION ( 'NONE',  ( 0.0000000000000000000, 1.000000000000000000, 0.0000000000000000000 ) ) ;
#115 =( GEOMETRIC_REPRESENTATION_CONTEXT ( 3 ) GLOBAL_UNCERTAINTY_ASSIGNED_CONTEXT ( ( #41 ) ) GLOBAL_UNIT_ASSIGNED_CONTEXT ( ( #107, #103, #72 ) ) REPRESENTATION_CONTEXT ( 'NONE', 'WORKASPACE' ) );
#116 = ADVANCED_FACE ( 'NONE', ( #82, #66 ), #149, .T. ) ;
#117 = ADVANCED_FACE ( 'NONE', ( #21, #174 ), #172, .T. ) ;
#118 = VERTEX_POINT ( 'NONE', #54 ) ;
#119 = VERTEX_POINT ( 'NONE', #4 ) ;
#120 = CC_DESIGN_APPROVAL ( #181, ( #50 ) ) ;
#121 = VERTEX_POINT ( 'NONE', #209 ) ;
#122 = FACE_OUTER_BOUND ( 'NONE', #37, .T. ) ;
#123 = ADVANCED_FACE ( 'NONE', ( #168 ), #211, .T. ) ;
#124 = PERSON_AND_ORGANIZATION ( #160, #221 ) ;
#125 = EDGE_LOOP ( 'NONE', ( #151 ) ) ;
#126 = DATE_AND_TIME ( #164, #40 ) ;
#127 = AXIS2_PLACEMENT_3D ( 'NONE', #74, #28, #110 ) ;
#128 = APPROVAL_DATE_TIME ( #146, #181 ) ;
#129 = ADVANCED_BREP_SHAPE_REPRESENTATION ( '57026', ( #222, #150, #127 ), #115 ) ;
#130 = APPROVAL_STATUS ( 'not_yet_approved' ) ;
#131 = DIRECTION ( 'NONE',  ( -3.491481338843133355E-15, 1.224646799147353207E-16, -1.000000000000000000 ) ) ;
#132 = ADVANCED_FACE ( 'NONE', ( #39, #122 ), #7, .T. ) ;
#133 = AXIS2_PLACEMENT_3D ( 'NONE', #217, #173, #12 ) ;
#134 = CARTESIAN_POINT ( 'NONE',  ( 8.728703347107833388E-14, 5.999999999999996447, 25.00000000000000000 ) ) ;
#135 = DIRECTION ( 'NONE',  ( 4.275831445896958607E-31, 1.000000000000000000, 1.224646799147353207E-16 ) ) ;
#136 = CARTESIAN_POINT ( 'NONE',  ( 8.728703347107833388E-14, 4.499279347985567350E-32, 25.00000000000000000 ) ) ;
#137 = EDGE_LOOP ( 'NONE', ( #89 ) ) ;
#138 = AXIS2_PLACEMENT_3D ( 'NONE', #136, #1, #87 ) ;
#139 = DIRECTION ( 'NONE',  ( 3.491481338843133355E-15, -1.217917285207545432E-16, 1.000000000000000000 ) ) ;
#140 = PRODUCT_RELATED_PRODUCT_CATEGORY ( 'detail', '', ( #85 ) ) ;
#141 = CALENDAR_DATE ( 2021, 17, 11 ) ;
#142 = APPROVAL_PERSON_ORGANIZATION ( #214, #20, #25 ) ;
#143 = ORIENTED_EDGE ( 'NONE', *, *, #220, .T. ) ;
#144 = CALENDAR_DATE ( 2021, 17, 11 ) ;
#145 = CARTESIAN_POINT ( 'NONE',  ( 2.897929511239800811E-13, -1.016456843292303150E-14, 83.00000000000000000 ) ) ;
#146 = DATE_AND_TIME ( #63, #154 ) ;
#147 = FACE_BOUND ( 'NONE', #111, .T. ) ;
#148 = DATE_AND_TIME ( #81, #68 ) ;
#149 = CONICAL_SURFACE ( 'NONE', #5, 6.000000000000000888, 0.7853981633974491672 ) ;
#150 = MANIFOLD_SOLID_BREP ( 'Corps-Déplacer/Copier1[2]', #45 ) ;
#151 = ORIENTED_EDGE ( 'NONE', *, *, #223, .T. ) ;
#152 = CC_DESIGN_PERSON_AND_ORGANIZATION_ASSIGNMENT ( #124, #79, ( #18 ) ) ;
#153 = DIRECTION ( 'NONE',  ( 3.491481338843133355E-15, -1.224646799147353207E-16, 1.000000000000000000 ) ) ;
#154 = LOCAL_TIME ( 10, 21, 3.000000000000000000, #216 ) ;
#155 = CARTESIAN_POINT ( 'NONE',  ( 2.897929511239800811E-13, 5.499999999999989342, 83.00000000000000000 ) ) ;
#156 = DIRECTION ( 'NONE',  ( -3.491481338843133355E-15, 1.224646799147353207E-16, -1.000000000000000000 ) ) ;
#157 = CARTESIAN_POINT ( 'NONE',  ( 8.728703347107833388E-14, -3.061616997868383043E-15, 25.00000000000000000 ) ) ;
#158 = ADVANCED_FACE ( 'NONE', ( #35 ), #104, .F. ) ;
#159 = PLANE ( 'NONE',  #138 ) ;
#160 = PERSON ( 'UNSPECIFIED', 'UNSPECIFIED', 'UNSPECIFIED', ('UNSPECIFIED'), ('UNSPECIFIED'), ('UNSPECIFIED') ) ;
#161 = COORDINATED_UNIVERSAL_TIME_OFFSET ( 1, 0, .AHEAD. ) ;
#162 = DATE_TIME_ROLE ( 'classification_date' ) ;
#163 = CIRCLE ( 'NONE', #208, 6.000000000000000000 ) ;
#164 = CALENDAR_DATE ( 2021, 17, 11 ) ;
#165 = DATE_AND_TIME ( #144, #166 ) ;
#166 = LOCAL_TIME ( 10, 21, 3.000000000000000000, #11 ) ;
#167 = CARTESIAN_POINT ( 'NONE',  ( 8.728703347107833388E-14, 4.499279347985567350E-32, 25.00000000000000000 ) ) ;
#168 = FACE_OUTER_BOUND ( 'NONE', #137, .T. ) ;
#169 = EDGE_CURVE ( 'NONE', #121, #121, #94, .T. ) ;
#170 = AXIS2_PLACEMENT_3D ( 'NONE', #71, #207, #86 ) ;
#171 = DIRECTION ( 'NONE',  ( -4.172848212839010723E-31, -1.000000000000000000, -1.219727444046192488E-16 ) ) ;
#172 = CYLINDRICAL_SURFACE ( 'NONE', #101, 6.000000000000000000 ) ;
#173 = DIRECTION ( 'NONE',  ( 3.491481338843133355E-15, -1.217917285207545432E-16, 1.000000000000000000 ) ) ;
#174 = FACE_OUTER_BOUND ( 'NONE', #198, .T. ) ;
#175 = DIRECTION ( 'NONE',  ( -3.491481338843133355E-15, 1.224646799147353207E-16, -1.000000000000000000 ) ) ;
#176 = APPLICATION_CONTEXT ( 'configuration controlled 3d designs of mechanical parts and assemblies' ) ;
#177 = APPLICATION_PROTOCOL_DEFINITION ( 'international standard', 'config_control_design', 1994, #203 ) ;
#178 = ORIENTED_EDGE ( 'NONE', *, *, #220, .F. ) ;
#179 = MECHANICAL_CONTEXT ( 'NONE', #176, 'mechanical' ) ;
#180 = FACE_OUTER_BOUND ( 'NONE', #201, .T. ) ;
#181 = APPROVAL ( #199, 'UNSPECIFIED' ) ;
#182 = PERSON_AND_ORGANIZATION_ROLE ( 'design_owner' ) ;
#183 = FACE_OUTER_BOUND ( 'NONE', #96, .T. ) ;
#184 = CC_DESIGN_DATE_AND_TIME_ASSIGNMENT ( #148, #162, ( #50 ) ) ;
#185 = CONICAL_SURFACE ( 'NONE', #133, 6.000000000000000000, 0.7853981633974495002 ) ;
#186 = ADVANCED_FACE ( 'NONE', ( #36 ), #159, .F. ) ;
#187 = CARTESIAN_POINT ( 'NONE',  ( 0.0000000000000000000, 0.0000000000000000000, 0.0000000000000000000 ) ) ;
#188 = AXIS2_PLACEMENT_3D ( 'NONE', #219, #204, #114 ) ;
#189 = DIRECTION ( 'NONE',  ( -3.491481338843133355E-15, 1.224646799147353207E-16, -1.000000000000000000 ) ) ;
#190 = VERTEX_POINT ( 'NONE', #102 ) ;
#191 = ORIENTED_EDGE ( 'NONE', *, *, #213, .F. ) ;
#192 = DIRECTION ( 'NONE',  ( -3.491481338843133355E-15, 1.224646799147353207E-16, -1.000000000000000000 ) ) ;
#193 = APPROVAL_PERSON_ORGANIZATION ( #195, #181, #65 ) ;
#194 = CARTESIAN_POINT ( 'NONE',  ( 2.880472104545584703E-13, -1.010333609296566392E-14, 82.50000000000000000 ) ) ;
#195 = PERSON_AND_ORGANIZATION ( #160, #221 ) ;
#196 = ORIENTED_EDGE ( 'NONE', *, *, #169, .T. ) ;
#197 = PERSON_AND_ORGANIZATION ( #160, #221 ) ;
#198 = EDGE_LOOP ( 'NONE', ( #64 ) ) ;
#199 = APPROVAL_STATUS ( 'not_yet_approved' ) ;
#200 = CIRCLE ( 'NONE', #31, 6.000000000000000000 ) ;
#201 = EDGE_LOOP ( 'NONE', ( #191 ) ) ;
#202 = APPROVAL_ROLE ( '' ) ;
#203 = APPLICATION_CONTEXT ( 'configuration controlled 3d designs of mechanical parts and assemblies' ) ;
#204 = DIRECTION ( 'NONE',  ( -3.491481338843133355E-15, 1.224646799147353207E-16, -1.000000000000000000 ) ) ;
#205 = AXIS2_PLACEMENT_3D ( 'NONE', #55, #189, #135 ) ;
#206 = VERTEX_POINT ( 'NONE', #155 ) ;
#207 = DIRECTION ( 'NONE',  ( -3.491481338843133355E-15, 1.224646799147353207E-16, -1.000000000000000000 ) ) ;
#208 = AXIS2_PLACEMENT_3D ( 'NONE', #73, #17, #171 ) ;
#209 = CARTESIAN_POINT ( 'NONE',  ( -4.932709149325696185E-30, -5.799999999999999822, -1.412784050840752682E-15 ) ) ;
#210 = ORIENTED_EDGE ( 'NONE', *, *, #52, .F. ) ;
#211 = PLANE ( 'NONE',  #108 ) ;
#212 = DESIGN_CONTEXT ( 'detailed design', #203, 'design' ) ;
#213 = EDGE_CURVE ( 'NONE', #190, #190, #163, .T. ) ;
#214 = PERSON_AND_ORGANIZATION ( #160, #221 ) ;
#215 = DATE_TIME_ROLE ( 'creation_date' ) ;
#216 = COORDINATED_UNIVERSAL_TIME_OFFSET ( 1, 0, .AHEAD. ) ;
#217 = CARTESIAN_POINT ( 'NONE',  ( 6.982962677686244031E-16, -2.435834570415082915E-17, 0.1999999999999993727 ) ) ;
#218 = APPROVAL_DATE_TIME ( #29, #92 ) ;
#219 = CARTESIAN_POINT ( 'NONE',  ( 8.728703347107833388E-14, -3.061616997868383043E-15, 25.00000000000000000 ) ) ;
#220 = EDGE_CURVE ( 'NONE', #118, #118, #16, .T. ) ;
#221 = ORGANIZATION ( 'UNSPECIFIED', 'UNSPECIFIED', '' ) ;
#222 = MANIFOLD_SOLID_BREP ( 'Corps-Déplacer/Copier1[1]', #8 ) ;
#223 = EDGE_CURVE ( 'NONE', #105, #105, #200, .T. ) ;
ENDSEC;
END-ISO-10303-21;
