ISO-10303-21;
HEADER;
FILE_DESCRIPTION (( 'STEP AP203' ),
    '1' );
FILE_NAME ('57025.step',
    '2021-11-17T09:21:03',
    ( '' ),
    ( '' ),
    'SwSTEP 2.0',
    'SolidWorks 2019',
    '' );
FILE_SCHEMA (( 'CONFIG_CONTROL_DESIGN' ));
ENDSEC;

DATA;
#1 = DIRECTION ( 'NONE',  ( -4.252335473556634068E-31, -1.000000000000000000, -1.217917285207545432E-16 ) ) ;
#2 = COORDINATED_UNIVERSAL_TIME_OFFSET ( 1, 0, .AHEAD. ) ;
#3 = PLANE ( 'NONE',  #68 ) ;
#4 = CALENDAR_DATE ( 2021, 17, 11 ) ;
#5 = ORIENTED_EDGE ( 'NONE', *, *, #123, .F. ) ;
#6 = CARTESIAN_POINT ( 'NONE',  ( 6.982962677686223323E-16, -5.500000000000000000, 0.1999999999999987343 ) ) ;
#7 = AXIS2_PLACEMENT_3D ( 'NONE', #244, #84, #147 ) ;
#8 = SECURITY_CLASSIFICATION ( '', '', #51 ) ;
#9 = FACE_OUTER_BOUND ( 'NONE', #132, .T. ) ;
#10 = DIRECTION ( 'NONE',  ( 0.0000000000000000000, 1.000000000000000000, 0.0000000000000000000 ) ) ;
#11 = EDGE_CURVE ( 'NONE', #159, #159, #99, .T. ) ;
#12 = DIRECTION ( 'NONE',  ( 0.0000000000000000000, 1.000000000000000000, 0.0000000000000000000 ) ) ;
#13 = FACE_OUTER_BOUND ( 'NONE', #195, .T. ) ;
#14 = ADVANCED_FACE ( 'NONE', ( #238 ), #165, .T. ) ;
#15 = CALENDAR_DATE ( 2021, 17, 11 ) ;
#16 = EDGE_LOOP ( 'NONE', ( #37 ) ) ;
#17 = CARTESIAN_POINT ( 'NONE',  ( 7.681258945454893382E-14, 4.499279347985568992E-32, 22.00000000000000000 ) ) ;
#18 = LOCAL_TIME ( 10, 21, 3.000000000000000000, #174 ) ;
#19 = DIRECTION ( 'NONE',  ( -4.275831445896958607E-31, -1.000000000000000000, -1.224646799147353207E-16 ) ) ;
#20 = DIRECTION ( 'NONE',  ( 3.491481338843133355E-15, -1.224646799147353207E-16, 1.000000000000000000 ) ) ;
#21 = DATE_AND_TIME ( #4, #255 ) ;
#22 = CARTESIAN_POINT ( 'NONE',  ( -2.565498867538175514E-30, 8.998558695971145647E-32, -7.347880794884119736E-16 ) ) ;
#23 = AXIS2_PLACEMENT_3D ( 'NONE', #26, #148, #185 ) ;
#24 = APPROVAL ( #153, 'UNSPECIFIED' ) ;
#25 = DATE_AND_TIME ( #49, #18 ) ;
#26 = CARTESIAN_POINT ( 'NONE',  ( 7.681258945454893382E-14, -2.694222958124176809E-15, 22.00000000000000000 ) ) ;
#27 = APPROVAL_DATE_TIME ( #21, #24 ) ;
#28 = CARTESIAN_POINT ( 'NONE',  ( 2.880472104545584703E-13, -1.010333609296566392E-14, 82.50000000000000000 ) ) ;
#29 = PERSON_AND_ORGANIZATION ( #156, #129 ) ;
#30 =( LENGTH_UNIT ( ) NAMED_UNIT ( * ) SI_UNIT ( .MILLI., .METRE. ) );
#31 = CLOSED_SHELL ( 'NONE', ( #119, #34, #14, #43, #263, #176 ) ) ;
#32 = CALENDAR_DATE ( 2021, 17, 11 ) ;
#33 = EDGE_CURVE ( 'NONE', #35, #35, #135, .T. ) ;
#34 = ADVANCED_FACE ( 'NONE', ( #151, #107 ), #86, .T. ) ;
#35 = VERTEX_POINT ( 'NONE', #101 ) ;
#36 = CARTESIAN_POINT ( 'NONE',  ( 6.982962677686246003E-16, -2.435834570415083531E-17, 0.1999999999999994005 ) ) ;
#37 = ORIENTED_EDGE ( 'NONE', *, *, #97, .F. ) ;
#38 = CARTESIAN_POINT ( 'NONE',  ( -4.677569020912297913E-30, -5.500000000000000000, -1.339709013728300025E-15 ) ) ;
#39 = ORIENTED_EDGE ( 'NONE', *, *, #33, .F. ) ;
#40 = APPROVAL_STATUS ( 'not_yet_approved' ) ;
#41 = LOCAL_TIME ( 10, 21, 3.000000000000000000, #142 ) ;
#42 = ORIENTED_EDGE ( 'NONE', *, *, #145, .F. ) ;
#43 = ADVANCED_FACE ( 'NONE', ( #188, #239 ), #59, .F. ) ;
#44 = CIRCLE ( 'NONE', #105, 6.000000000000000888 ) ;
#45 = DIRECTION ( 'NONE',  ( 4.275831445896958607E-31, 1.000000000000000000, 1.224646799147353207E-16 ) ) ;
#46 = FACE_BOUND ( 'NONE', #164, .T. ) ;
#47 = FACE_OUTER_BOUND ( 'NONE', #235, .T. ) ;
#48 = CC_DESIGN_PERSON_AND_ORGANIZATION_ASSIGNMENT ( #77, #257, ( #92 ) ) ;
#49 = CALENDAR_DATE ( 2021, 17, 11 ) ;
#50 = PLANE ( 'NONE',  #172 ) ;
#51 = SECURITY_CLASSIFICATION_LEVEL ( 'unclassified' ) ;
#52 = CARTESIAN_POINT ( 'NONE',  ( 2.897929511239800811E-13, 5.499999999999989342, 83.00000000000000000 ) ) ;
#53 = EDGE_CURVE ( 'NONE', #96, #96, #100, .T. ) ;
#54 = CIRCLE ( 'NONE', #72, 5.500000000000000000 ) ;
#55 = DIRECTION ( 'NONE',  ( 0.0000000000000000000, 0.0000000000000000000, 1.000000000000000000 ) ) ;
#56 = APPLICATION_PROTOCOL_DEFINITION ( 'international standard', 'config_control_design', 1994, #98 ) ;
#57 = LOCAL_TIME ( 10, 21, 3.000000000000000000, #247 ) ;
#58 = EDGE_LOOP ( 'NONE', ( #215 ) ) ;
#59 = CYLINDRICAL_SURFACE ( 'NONE', #143, 5.500000000000000000 ) ;
#60 = DIRECTION ( 'NONE',  ( -4.202028969572151271E-31, -1.000000000000000000, -1.232047923278982199E-16 ) ) ;
#61 = CC_DESIGN_PERSON_AND_ORGANIZATION_ASSIGNMENT ( #110, #242, ( #125 ) ) ;
#62 = PLANE ( 'NONE',  #229 ) ;
#63 = APPROVAL_STATUS ( 'not_yet_approved' ) ;
#64 = CARTESIAN_POINT ( 'NONE',  ( 0.0000000000000000000, 0.0000000000000000000, 0.0000000000000000000 ) ) ;
#65 = DIRECTION ( 'NONE',  ( 3.491481338843133355E-15, -1.217917285207545432E-16, 1.000000000000000000 ) ) ;
#66 = AXIS2_PLACEMENT_3D ( 'NONE', #64, #218, #262 ) ;
#67 = PERSON_AND_ORGANIZATION_ROLE ( 'classification_officer' ) ;
#68 = AXIS2_PLACEMENT_3D ( 'NONE', #169, #243, #155 ) ;
#69 = CC_DESIGN_PERSON_AND_ORGANIZATION_ASSIGNMENT ( #122, #197, ( #227 ) ) ;
#70 = DIRECTION ( 'NONE',  ( -3.491481338843133355E-15, 1.224646799147353207E-16, -1.000000000000000000 ) ) ;
#71 = ORIENTED_EDGE ( 'NONE', *, *, #245, .T. ) ;
#72 = AXIS2_PLACEMENT_3D ( 'NONE', #213, #252, #12 ) ;
#73 = ORIENTED_EDGE ( 'NONE', *, *, #145, .T. ) ;
#74 = UNCERTAINTY_MEASURE_WITH_UNIT (LENGTH_MEASURE( 1.000000000000000082E-05 ), #30, 'distance_accuracy_value', 'NONE');
#75 = ADVANCED_FACE ( 'NONE', ( #128 ), #50, .F. ) ;
#76 = FACE_OUTER_BOUND ( 'NONE', #58, .T. ) ;
#77 = PERSON_AND_ORGANIZATION ( #156, #129 ) ;
#78 = MANIFOLD_SOLID_BREP ( 'Corps-Déplacer/Copier1[2]', #31 ) ;
#79 = ORIENTED_EDGE ( 'NONE', *, *, #11, .T. ) ;
#80 = EDGE_LOOP ( 'NONE', ( #39 ) ) ;
#81 = DIRECTION ( 'NONE',  ( 0.0000000000000000000, 1.000000000000000000, 0.0000000000000000000 ) ) ;
#82 = MANIFOLD_SOLID_BREP ( 'Corps-Déplacer/Copier1[1]', #210 ) ;
#83 = EDGE_LOOP ( 'NONE', ( #79 ) ) ;
#84 = DIRECTION ( 'NONE',  ( 3.491481338843133355E-15, -1.217917285207545432E-16, 1.000000000000000000 ) ) ;
#85 = APPROVAL ( #63, 'UNSPECIFIED' ) ;
#86 = CYLINDRICAL_SURFACE ( 'NONE', #66, 6.000000000000000000 ) ;
#87 = APPLICATION_CONTEXT ( 'configuration controlled 3d designs of mechanical parts and assemblies' ) ;
#88 = CARTESIAN_POINT ( 'NONE',  ( 6.982962677686246003E-16, -2.435834570415083531E-17, 0.1999999999999994005 ) ) ;
#89 = DIRECTION ( 'NONE',  ( -3.491481338843133355E-15, 1.224646799147353207E-16, -1.000000000000000000 ) ) ;
#90 = AXIS2_PLACEMENT_3D ( 'NONE', #194, #55, #95 ) ;
#91 = AXIS2_PLACEMENT_3D ( 'NONE', #209, #70, #94 ) ;
#92 = PRODUCT ( '57025', '57025', '', ( #114 ) ) ;
#93 = CONICAL_SURFACE ( 'NONE', #246, 5.500000000000000000, 0.7853981633974495002 ) ;
#94 = DIRECTION ( 'NONE',  ( 0.0000000000000000000, 1.000000000000000000, 0.0000000000000000000 ) ) ;
#95 = DIRECTION ( 'NONE',  ( 1.000000000000000000, 0.0000000000000000000, 0.0000000000000000000 ) ) ;
#96 = VERTEX_POINT ( 'NONE', #38 ) ;
#97 = EDGE_CURVE ( 'NONE', #231, #231, #183, .T. ) ;
#98 = APPLICATION_CONTEXT ( 'configuration controlled 3d designs of mechanical parts and assemblies' ) ;
#99 = CIRCLE ( 'NONE', #179, 5.500000000000000000 ) ;
#100 = CIRCLE ( 'NONE', #7, 5.500000000000000000 ) ;
#101 = CARTESIAN_POINT ( 'NONE',  ( 0.0000000000000000000, 6.000000000000000000, 0.0000000000000000000 ) ) ;
#102 = EDGE_LOOP ( 'NONE', ( #157 ) ) ;
#103 = DATE_AND_TIME ( #15, #41 ) ;
#104 = EDGE_LOOP ( 'NONE', ( #42 ) ) ;
#105 = AXIS2_PLACEMENT_3D ( 'NONE', #28, #248, #10 ) ;
#106 = DIRECTION ( 'NONE',  ( -3.491481338843133355E-15, 1.224646799147353207E-16, -1.000000000000000000 ) ) ;
#107 = FACE_OUTER_BOUND ( 'NONE', #80, .T. ) ;
#108 = ORIENTED_EDGE ( 'NONE', *, *, #191, .F. ) ;
#109 = FACE_OUTER_BOUND ( 'NONE', #16, .T. ) ;
#110 = PERSON_AND_ORGANIZATION ( #156, #129 ) ;
#111 = DIRECTION ( 'NONE',  ( -3.491481338843133355E-15, 1.224646799147353207E-16, -1.000000000000000000 ) ) ;
#112 = CARTESIAN_POINT ( 'NONE',  ( 0.0000000000000000000, 0.0000000000000000000, 0.0000000000000000000 ) ) ;
#113 = ADVANCED_BREP_SHAPE_REPRESENTATION ( '57025', ( #82, #78, #90 ), #116 ) ;
#114 = MECHANICAL_CONTEXT ( 'NONE', #98, 'mechanical' ) ;
#115 = APPROVAL_PERSON_ORGANIZATION ( #29, #24, #136 ) ;
#116 =( GEOMETRIC_REPRESENTATION_CONTEXT ( 3 ) GLOBAL_UNCERTAINTY_ASSIGNED_CONTEXT ( ( #74 ) ) GLOBAL_UNIT_ASSIGNED_CONTEXT ( ( #30, #178, #177 ) ) REPRESENTATION_CONTEXT ( 'NONE', 'WORKASPACE' ) );
#117 = VERTEX_POINT ( 'NONE', #253 ) ;
#118 = CARTESIAN_POINT ( 'NONE',  ( 2.880472104545584703E-13, 5.999999999999990230, 82.50000000000000000 ) ) ;
#119 = ADVANCED_FACE ( 'NONE', ( #131, #46 ), #62, .T. ) ;
#120 = EDGE_LOOP ( 'NONE', ( #5 ) ) ;
#121 = APPROVAL_PERSON_ORGANIZATION ( #216, #168, #163 ) ;
#122 = PERSON_AND_ORGANIZATION ( #156, #129 ) ;
#123 = EDGE_CURVE ( 'NONE', #117, #117, #225, .T. ) ;
#124 = ORIENTED_EDGE ( 'NONE', *, *, #53, .T. ) ;
#125 = PRODUCT_DEFINITION_FORMATION_WITH_SPECIFIED_SOURCE ( 'ANY', '', #92, .NOT_KNOWN. ) ;
#126 = CARTESIAN_POINT ( 'NONE',  ( -2.253737800985016433E-30, 7.861609322118781954E-32, -6.454961611599989954E-16 ) ) ;
#127 = CARTESIAN_POINT ( 'NONE',  ( 7.681258945454893382E-14, -2.694222958124176809E-15, 22.00000000000000000 ) ) ;
#128 = FACE_OUTER_BOUND ( 'NONE', #254, .T. ) ;
#129 = ORGANIZATION ( 'UNSPECIFIED', 'UNSPECIFIED', '' ) ;
#130 = DATE_AND_TIME ( #249, #167 ) ;
#131 = FACE_OUTER_BOUND ( 'NONE', #140, .T. ) ;
#132 = EDGE_LOOP ( 'NONE', ( #71 ) ) ;
#133 = DATE_AND_TIME ( #32, #57 ) ;
#134 = VERTEX_POINT ( 'NONE', #118 ) ;
#135 = CIRCLE ( 'NONE', #166, 6.000000000000000000 ) ;
#136 = APPROVAL_ROLE ( '' ) ;
#137 = CC_DESIGN_APPROVAL ( #168, ( #227 ) ) ;
#138 = CC_DESIGN_DATE_AND_TIME_ASSIGNMENT ( #133, #149, ( #227 ) ) ;
#139 = CARTESIAN_POINT ( 'NONE',  ( -4.507475601970032865E-30, -5.299999999999998934, -1.290992322319997991E-15 ) ) ;
#140 = EDGE_LOOP ( 'NONE', ( #160 ) ) ;
#141 = CYLINDRICAL_SURFACE ( 'NONE', #212, 6.000000000000000000 ) ;
#142 = COORDINATED_UNIVERSAL_TIME_OFFSET ( 1, 0, .AHEAD. ) ;
#143 = AXIS2_PLACEMENT_3D ( 'NONE', #150, #171, #1 ) ;
#144 = DIRECTION ( 'NONE',  ( -3.491481338843133355E-15, 1.224646799147353207E-16, -1.000000000000000000 ) ) ;
#145 = EDGE_CURVE ( 'NONE', #190, #190, #211, .T. ) ;
#146 = CC_DESIGN_SECURITY_CLASSIFICATION ( #8, ( #125 ) ) ;
#147 = DIRECTION ( 'NONE',  ( -4.252335473556634068E-31, -1.000000000000000000, -1.217917285207545432E-16 ) ) ;
#148 = DIRECTION ( 'NONE',  ( -3.491481338843133355E-15, 1.224646799147353207E-16, -1.000000000000000000 ) ) ;
#149 = DATE_TIME_ROLE ( 'creation_date' ) ;
#150 = CARTESIAN_POINT ( 'NONE',  ( 0.0000000000000000000, 0.0000000000000000000, 0.0000000000000000000 ) ) ;
#151 = FACE_OUTER_BOUND ( 'NONE', #186, .T. ) ;
#152 = PERSON_AND_ORGANIZATION ( #156, #129 ) ;
#153 = APPROVAL_STATUS ( 'not_yet_approved' ) ;
#154 = ADVANCED_FACE ( 'NONE', ( #47 ), #200, .F. ) ;
#155 = DIRECTION ( 'NONE',  ( 4.275831445896958607E-31, 1.000000000000000000, 1.224646799147353207E-16 ) ) ;
#156 = PERSON ( 'UNSPECIFIED', 'UNSPECIFIED', 'UNSPECIFIED', ('UNSPECIFIED'), ('UNSPECIFIED'), ('UNSPECIFIED') ) ;
#157 = ORIENTED_EDGE ( 'NONE', *, *, #53, .F. ) ;
#158 = APPROVAL_PERSON_ORGANIZATION ( #152, #85, #208 ) ;
#159 = VERTEX_POINT ( 'NONE', #6 ) ;
#160 = ORIENTED_EDGE ( 'NONE', *, *, #33, .T. ) ;
#161 = CARTESIAN_POINT ( 'NONE',  ( 7.681258945454893382E-14, 5.999999999999997335, 22.00000000000000000 ) ) ;
#162 = CC_DESIGN_DATE_AND_TIME_ASSIGNMENT ( #25, #189, ( #8 ) ) ;
#163 = APPROVAL_ROLE ( '' ) ;
#164 = EDGE_LOOP ( 'NONE', ( #124 ) ) ;
#165 = PLANE ( 'NONE',  #240 ) ;
#166 = AXIS2_PLACEMENT_3D ( 'NONE', #22, #106, #222 ) ;
#167 = LOCAL_TIME ( 10, 21, 3.000000000000000000, #250 ) ;
#168 = APPROVAL ( #40, 'UNSPECIFIED' ) ;
#169 = CARTESIAN_POINT ( 'NONE',  ( -1.282749433769087757E-30, 4.499279347985572824E-32, -3.673940397442059868E-16 ) ) ;
#170 = SHAPE_DEFINITION_REPRESENTATION ( #221, #113 ) ;
#171 = DIRECTION ( 'NONE',  ( 3.491481338843133355E-15, -1.217917285207545432E-16, 1.000000000000000000 ) ) ;
#172 = AXIS2_PLACEMENT_3D ( 'NONE', #220, #144, #45 ) ;
#173 = APPROVAL_DATE_TIME ( #130, #85 ) ;
#174 = COORDINATED_UNIVERSAL_TIME_OFFSET ( 1, 0, .AHEAD. ) ;
#175 = DIRECTION ( 'NONE',  ( -4.202028969572151271E-31, -1.000000000000000000, -1.232047923278982199E-16 ) ) ;
#176 = ADVANCED_FACE ( 'NONE', ( #109 ), #3, .T. ) ;
#177 =( NAMED_UNIT ( * ) SI_UNIT ( $, .STERADIAN. ) SOLID_ANGLE_UNIT ( ) );
#178 =( NAMED_UNIT ( * ) PLANE_ANGLE_UNIT ( ) SI_UNIT ( $, .RADIAN. ) );
#179 = AXIS2_PLACEMENT_3D ( 'NONE', #88, #187, #60 ) ;
#180 = DIRECTION ( 'NONE',  ( 3.491481338843133355E-15, -1.217917285207545432E-16, 1.000000000000000000 ) ) ;
#181 = ADVANCED_FACE ( 'NONE', ( #9, #256 ), #141, .T. ) ;
#182 = APPROVAL_DATE_TIME ( #103, #168 ) ;
#183 = CIRCLE ( 'NONE', #228, 5.299999999999998934 ) ;
#184 = CC_DESIGN_PERSON_AND_ORGANIZATION_ASSIGNMENT ( #202, #223, ( #125 ) ) ;
#185 = DIRECTION ( 'NONE',  ( 0.0000000000000000000, 1.000000000000000000, 0.0000000000000000000 ) ) ;
#186 = EDGE_LOOP ( 'NONE', ( #73 ) ) ;
#187 = DIRECTION ( 'NONE',  ( 3.491481338843133355E-15, -1.217917285207545432E-16, 1.000000000000000000 ) ) ;
#188 = FACE_OUTER_BOUND ( 'NONE', #83, .T. ) ;
#189 = DATE_TIME_ROLE ( 'classification_date' ) ;
#190 = VERTEX_POINT ( 'NONE', #161 ) ;
#191 = EDGE_CURVE ( 'NONE', #193, #193, #54, .T. ) ;
#192 = FACE_BOUND ( 'NONE', #217, .T. ) ;
#193 = VERTEX_POINT ( 'NONE', #52 ) ;
#194 = CARTESIAN_POINT ( 'NONE',  ( 0.0000000000000000000, 0.0000000000000000000, 0.0000000000000000000 ) ) ;
#195 = EDGE_LOOP ( 'NONE', ( #198 ) ) ;
#196 = ADVANCED_FACE ( 'NONE', ( #192, #13 ), #260, .T. ) ;
#197 = PERSON_AND_ORGANIZATION_ROLE ( 'creator' ) ;
#198 = ORIENTED_EDGE ( 'NONE', *, *, #245, .F. ) ;
#199 = ORIENTED_EDGE ( 'NONE', *, *, #123, .T. ) ;
#200 = PLANE ( 'NONE',  #236 ) ;
#201 = CARTESIAN_POINT ( 'NONE',  ( 7.681258945454893382E-14, 4.499279347985568992E-32, 22.00000000000000000 ) ) ;
#202 = PERSON_AND_ORGANIZATION ( #156, #129 ) ;
#203 = DIRECTION ( 'NONE',  ( -4.275831445896958607E-31, -1.000000000000000000, -1.224646799147353207E-16 ) ) ;
#204 = AXIS2_PLACEMENT_3D ( 'NONE', #127, #111, #81 ) ;
#205 = PERSON_AND_ORGANIZATION ( #156, #129 ) ;
#206 = CARTESIAN_POINT ( 'NONE',  ( -1.282749433769087757E-30, 4.499279347985572824E-32, -3.673940397442059868E-16 ) ) ;
#207 = FACE_BOUND ( 'NONE', #230, .T. ) ;
#208 = APPROVAL_ROLE ( '' ) ;
#209 = CARTESIAN_POINT ( 'NONE',  ( 2.880472104545584703E-13, -1.010333609296566392E-14, 82.50000000000000000 ) ) ;
#210 = CLOSED_SHELL ( 'NONE', ( #154, #181, #196, #75 ) ) ;
#211 = CIRCLE ( 'NONE', #204, 6.000000000000000000 ) ;
#212 = AXIS2_PLACEMENT_3D ( 'NONE', #112, #89, #214 ) ;
#213 = CARTESIAN_POINT ( 'NONE',  ( 2.897929511239800811E-13, -1.016456843292303150E-14, 83.00000000000000000 ) ) ;
#214 = DIRECTION ( 'NONE',  ( 4.275831445896959482E-31, 1.000000000000000000, 1.224646799147353207E-16 ) ) ;
#215 = ORIENTED_EDGE ( 'NONE', *, *, #11, .F. ) ;
#216 = PERSON_AND_ORGANIZATION ( #156, #129 ) ;
#217 = EDGE_LOOP ( 'NONE', ( #259 ) ) ;
#218 = DIRECTION ( 'NONE',  ( -3.491481338843133355E-15, 1.224646799147353207E-16, -1.000000000000000000 ) ) ;
#219 = CC_DESIGN_APPROVAL ( #85, ( #125 ) ) ;
#220 = CARTESIAN_POINT ( 'NONE',  ( 2.897929511239800811E-13, 4.124339402320093095E-32, 83.00000000000000000 ) ) ;
#221 = PRODUCT_DEFINITION_SHAPE ( 'NONE', 'NONE',  #227 ) ;
#222 = DIRECTION ( 'NONE',  ( 4.275831445896959482E-31, 1.000000000000000000, 1.224646799147353207E-16 ) ) ;
#223 = PERSON_AND_ORGANIZATION_ROLE ( 'design_supplier' ) ;
#224 = DIRECTION ( 'NONE',  ( 3.491481338843133355E-15, -1.224646799147353207E-16, 1.000000000000000000 ) ) ;
#225 = CIRCLE ( 'NONE', #23, 6.000000000000000000 ) ;
#226 = DIRECTION ( 'NONE',  ( -3.491481338843133355E-15, 1.224646799147353207E-16, -1.000000000000000000 ) ) ;
#227 = PRODUCT_DEFINITION ( 'UNKNOWN', '', #125, #232 ) ;
#228 = AXIS2_PLACEMENT_3D ( 'NONE', #126, #65, #241 ) ;
#229 = AXIS2_PLACEMENT_3D ( 'NONE', #206, #226, #261 ) ;
#230 = EDGE_LOOP ( 'NONE', ( #237 ) ) ;
#231 = VERTEX_POINT ( 'NONE', #139 ) ;
#232 = DESIGN_CONTEXT ( 'detailed design', #87, 'design' ) ;
#233 = APPLICATION_PROTOCOL_DEFINITION ( 'international standard', 'config_control_design', 1994, #87 ) ;
#234 = PRODUCT_RELATED_PRODUCT_CATEGORY ( 'detail', '', ( #92 ) ) ;
#235 = EDGE_LOOP ( 'NONE', ( #199 ) ) ;
#236 = AXIS2_PLACEMENT_3D ( 'NONE', #201, #20, #203 ) ;
#237 = ORIENTED_EDGE ( 'NONE', *, *, #97, .T. ) ;
#238 = FACE_OUTER_BOUND ( 'NONE', #104, .T. ) ;
#239 = FACE_OUTER_BOUND ( 'NONE', #102, .T. ) ;
#240 = AXIS2_PLACEMENT_3D ( 'NONE', #17, #224, #19 ) ;
#241 = DIRECTION ( 'NONE',  ( -4.252335473556635820E-31, -1.000000000000000000, -1.217917285207545432E-16 ) ) ;
#242 = PERSON_AND_ORGANIZATION_ROLE ( 'creator' ) ;
#243 = DIRECTION ( 'NONE',  ( -3.491481338843133355E-15, 1.224646799147353207E-16, -1.000000000000000000 ) ) ;
#244 = CARTESIAN_POINT ( 'NONE',  ( -2.338784510456149307E-30, 8.158273824840245857E-32, -6.698545068641500125E-16 ) ) ;
#245 = EDGE_CURVE ( 'NONE', #134, #134, #44, .T. ) ;
#246 = AXIS2_PLACEMENT_3D ( 'NONE', #36, #180, #175 ) ;
#247 = COORDINATED_UNIVERSAL_TIME_OFFSET ( 1, 0, .AHEAD. ) ;
#248 = DIRECTION ( 'NONE',  ( -3.491481338843133355E-15, 1.224646799147353207E-16, -1.000000000000000000 ) ) ;
#249 = CALENDAR_DATE ( 2021, 17, 11 ) ;
#250 = COORDINATED_UNIVERSAL_TIME_OFFSET ( 1, 0, .AHEAD. ) ;
#251 = CC_DESIGN_APPROVAL ( #24, ( #8 ) ) ;
#252 = DIRECTION ( 'NONE',  ( -3.491481338843133355E-15, 1.224646799147353207E-16, -1.000000000000000000 ) ) ;
#253 = CARTESIAN_POINT ( 'NONE',  ( 7.681258945454893382E-14, 5.999999999999997335, 22.00000000000000000 ) ) ;
#254 = EDGE_LOOP ( 'NONE', ( #108 ) ) ;
#255 = LOCAL_TIME ( 10, 21, 3.000000000000000000, #2 ) ;
#256 = FACE_OUTER_BOUND ( 'NONE', #120, .T. ) ;
#257 = PERSON_AND_ORGANIZATION_ROLE ( 'design_owner' ) ;
#258 = CC_DESIGN_PERSON_AND_ORGANIZATION_ASSIGNMENT ( #205, #67, ( #8 ) ) ;
#259 = ORIENTED_EDGE ( 'NONE', *, *, #191, .T. ) ;
#260 = CONICAL_SURFACE ( 'NONE', #91, 6.000000000000000888, 0.7853981633974491672 ) ;
#261 = DIRECTION ( 'NONE',  ( 4.275831445896958607E-31, 1.000000000000000000, 1.224646799147353207E-16 ) ) ;
#262 = DIRECTION ( 'NONE',  ( 4.275831445896959482E-31, 1.000000000000000000, 1.224646799147353207E-16 ) ) ;
#263 = ADVANCED_FACE ( 'NONE', ( #207, #76 ), #93, .T. ) ;
ENDSEC;
END-ISO-10303-21;
