ISO-10303-21;
HEADER;
FILE_DESCRIPTION (( 'STEP AP203' ),
    '1' );
FILE_NAME ('57024.step',
    '2021-11-17T09:21:02',
    ( '' ),
    ( '' ),
    'SwSTEP 2.0',
    'SolidWorks 2019',
    '' );
FILE_SCHEMA (( 'CONFIG_CONTROL_DESIGN' ));
ENDSEC;

DATA;
#1 = FACE_OUTER_BOUND ( 'NONE', #190, .T. ) ;
#2 = AXIS2_PLACEMENT_3D ( 'NONE', #111, #91, #53 ) ;
#3 = CARTESIAN_POINT ( 'NONE',  ( 7.681258945454893382E-14, 3.749399456654640188E-32, 22.00000000000000000 ) ) ;
#4 = APPROVAL_ROLE ( '' ) ;
#5 =( LENGTH_UNIT ( ) NAMED_UNIT ( * ) SI_UNIT ( .MILLI., .METRE. ) );
#6 = ADVANCED_FACE ( 'NONE', ( #18 ), #154, .F. ) ;
#7 = PERSON_AND_ORGANIZATION ( #60, #193 ) ;
#8 = DIRECTION ( 'NONE',  ( -3.491481338843133355E-15, 1.224646799147353207E-16, -1.000000000000000000 ) ) ;
#9 = AXIS2_PLACEMENT_3D ( 'NONE', #3, #121, #59 ) ;
#10 = CARTESIAN_POINT ( 'NONE',  ( 6.982962677686251919E-16, -2.435834570415085688E-17, 0.1999999999999995670 ) ) ;
#11 = CIRCLE ( 'NONE', #131, 4.500000000000000888 ) ;
#12 = PRODUCT_DEFINITION_FORMATION_WITH_SPECIFIED_SOURCE ( 'ANY', '', #116, .NOT_KNOWN. ) ;
#13 = CLOSED_SHELL ( 'NONE', ( #126, #158, #146, #6 ) ) ;
#14 = PERSON_AND_ORGANIZATION_ROLE ( 'classification_officer' ) ;
#15 = CIRCLE ( 'NONE', #155, 4.999999999999999112 ) ;
#16 = CC_DESIGN_DATE_AND_TIME_ASSIGNMENT ( #159, #174, ( #216 ) ) ;
#17 = APPROVAL_ROLE ( '' ) ;
#18 = FACE_OUTER_BOUND ( 'NONE', #173, .T. ) ;
#19 = DIRECTION ( 'NONE',  ( -3.491481338843133355E-15, 1.224646799147353207E-16, -1.000000000000000000 ) ) ;
#20 = APPROVAL_STATUS ( 'not_yet_approved' ) ;
#21 = CARTESIAN_POINT ( 'NONE',  ( 2.513866563967056016E-13, -8.817456953860941711E-15, 72.00000000000000000 ) ) ;
#22 = SECURITY_CLASSIFICATION_LEVEL ( 'unclassified' ) ;
#23 = CC_DESIGN_PERSON_AND_ORGANIZATION_ASSIGNMENT ( #7, #123, ( #12 ) ) ;
#24 = DIRECTION ( 'NONE',  ( -3.491481338843133355E-15, 1.224646799147353207E-16, -1.000000000000000000 ) ) ;
#25 = DIRECTION ( 'NONE',  ( -3.491481338843133355E-15, 1.224646799147353207E-16, -1.000000000000000000 ) ) ;
#26 = LOCAL_TIME ( 10, 21, 2.000000000000000000, #69 ) ;
#27 = CC_DESIGN_PERSON_AND_ORGANIZATION_ASSIGNMENT ( #213, #140, ( #34 ) ) ;
#28 = CALENDAR_DATE ( 2021, 17, 11 ) ;
#29 = VERTEX_POINT ( 'NONE', #32 ) ;
#30 = CARTESIAN_POINT ( 'NONE',  ( 2.496409157272839907E-13, 4.999999999999990230, 71.49999999999998579 ) ) ;
#31 = APPLICATION_PROTOCOL_DEFINITION ( 'international standard', 'config_control_design', 1994, #201 ) ;
#32 = CARTESIAN_POINT ( 'NONE',  ( 7.681258945454893382E-14, 4.999999999999997335, 22.00000000000000000 ) ) ;
#33 = CIRCLE ( 'NONE', #45, 5.000000000000000000 ) ;
#34 = PRODUCT_DEFINITION ( 'UNKNOWN', '', #12, #149 ) ;
#35 = CC_DESIGN_APPROVAL ( #207, ( #34 ) ) ;
#36 = COORDINATED_UNIVERSAL_TIME_OFFSET ( 1, 0, .AHEAD. ) ;
#37 = ORIENTED_EDGE ( 'NONE', *, *, #153, .T. ) ;
#38 = EDGE_LOOP ( 'NONE', ( #99 ) ) ;
#39 = CARTESIAN_POINT ( 'NONE',  ( -4.082242054614368845E-30, -4.799999999999998934, -1.169200593799243300E-15 ) ) ;
#40 = PLANE ( 'NONE',  #9 ) ;
#41 = PLANE ( 'NONE',  #65 ) ;
#42 = CALENDAR_DATE ( 2021, 17, 11 ) ;
#43 = FACE_BOUND ( 'NONE', #51, .T. ) ;
#44 = CIRCLE ( 'NONE', #136, 5.000000000000000000 ) ;
#45 = AXIS2_PLACEMENT_3D ( 'NONE', #141, #24, #178 ) ;
#46 = CALENDAR_DATE ( 2021, 17, 11 ) ;
#47 =( GEOMETRIC_REPRESENTATION_CONTEXT ( 3 ) GLOBAL_UNCERTAINTY_ASSIGNED_CONTEXT ( ( #127 ) ) GLOBAL_UNIT_ASSIGNED_CONTEXT ( ( #5, #145, #151 ) ) REPRESENTATION_CONTEXT ( 'NONE', 'WORKASPACE' ) );
#48 = EDGE_LOOP ( 'NONE', ( #37 ) ) ;
#49 = ORIENTED_EDGE ( 'NONE', *, *, #129, .F. ) ;
#50 = ORIENTED_EDGE ( 'NONE', *, *, #186, .T. ) ;
#51 = EDGE_LOOP ( 'NONE', ( #135 ) ) ;
#52 = CC_DESIGN_APPROVAL ( #171, ( #12 ) ) ;
#53 = DIRECTION ( 'NONE',  ( 0.0000000000000000000, 1.000000000000000000, 0.0000000000000000000 ) ) ;
#54 = CARTESIAN_POINT ( 'NONE',  ( 0.0000000000000000000, 0.0000000000000000000, 0.0000000000000000000 ) ) ;
#55 = APPROVAL_PERSON_ORGANIZATION ( #198, #171, #4 ) ;
#56 = MECHANICAL_CONTEXT ( 'NONE', #70, 'mechanical' ) ;
#57 = DIRECTION ( 'NONE',  ( -3.491481338843133355E-15, 1.224646799147353207E-16, -1.000000000000000000 ) ) ;
#58 = DATE_TIME_ROLE ( 'creation_date' ) ;
#59 = DIRECTION ( 'NONE',  ( -4.275831445896958607E-31, -1.000000000000000000, -1.224646799147353207E-16 ) ) ;
#60 = PERSON ( 'UNSPECIFIED', 'UNSPECIFIED', 'UNSPECIFIED', ('UNSPECIFIED'), ('UNSPECIFIED'), ('UNSPECIFIED') ) ;
#61 = AXIS2_PLACEMENT_3D ( 'NONE', #219, #66, #132 ) ;
#62 = ADVANCED_BREP_SHAPE_REPRESENTATION ( '57024', ( #144, #68, #143 ), #47 ) ;
#63 = EDGE_CURVE ( 'NONE', #105, #105, #11, .T. ) ;
#64 = ORIENTED_EDGE ( 'NONE', *, *, #73, .F. ) ;
#65 = AXIS2_PLACEMENT_3D ( 'NONE', #169, #210, #211 ) ;
#66 = DIRECTION ( 'NONE',  ( 3.491481338843133355E-15, -1.224646799147353207E-16, 1.000000000000000000 ) ) ;
#67 = DIRECTION ( 'NONE',  ( -3.491481338843133355E-15, 1.224646799147353207E-16, -1.000000000000000000 ) ) ;
#68 = MANIFOLD_SOLID_BREP ( 'Corps-Déplacer/Copier1[2]', #156 ) ;
#69 = COORDINATED_UNIVERSAL_TIME_OFFSET ( 1, 0, .AHEAD. ) ;
#70 = APPLICATION_CONTEXT ( 'configuration controlled 3d designs of mechanical parts and assemblies' ) ;
#71 = FACE_OUTER_BOUND ( 'NONE', #176, .T. ) ;
#72 = AXIS2_PLACEMENT_3D ( 'NONE', #142, #166, #107 ) ;
#73 = EDGE_CURVE ( 'NONE', #181, #181, #15, .T. ) ;
#74 = DIRECTION ( 'NONE',  ( 3.491481338843133355E-15, -1.217917285207545432E-16, 1.000000000000000000 ) ) ;
#75 = CARTESIAN_POINT ( 'NONE',  ( 0.0000000000000000000, 0.0000000000000000000, 0.0000000000000000000 ) ) ;
#76 = FACE_OUTER_BOUND ( 'NONE', #175, .T. ) ;
#77 = DATE_AND_TIME ( #42, #179 ) ;
#78 = CARTESIAN_POINT ( 'NONE',  ( 0.0000000000000000000, 0.0000000000000000000, 0.0000000000000000000 ) ) ;
#79 = PERSON_AND_ORGANIZATION ( #60, #193 ) ;
#80 = AXIS2_PLACEMENT_3D ( 'NONE', #114, #206, #98 ) ;
#81 = CC_DESIGN_SECURITY_CLASSIFICATION ( #216, ( #12 ) ) ;
#82 = PERSON_AND_ORGANIZATION ( #60, #193 ) ;
#83 = DATE_AND_TIME ( #89, #168 ) ;
#84 = CARTESIAN_POINT ( 'NONE',  ( 2.496409157272839907E-13, -8.756224613903572559E-15, 71.49999999999998579 ) ) ;
#85 = DIRECTION ( 'NONE',  ( 0.0000000000000000000, 1.000000000000000000, 0.0000000000000000000 ) ) ;
#86 = PRODUCT_DEFINITION_SHAPE ( 'NONE', 'NONE',  #34 ) ;
#87 = LOCAL_TIME ( 10, 21, 2.000000000000000000, #36 ) ;
#88 = FACE_OUTER_BOUND ( 'NONE', #48, .T. ) ;
#89 = CALENDAR_DATE ( 2021, 17, 11 ) ;
#90 = PERSON_AND_ORGANIZATION_ROLE ( 'design_owner' ) ;
#91 = DIRECTION ( 'NONE',  ( -3.491481338843133355E-15, 1.224646799147353207E-16, -1.000000000000000000 ) ) ;
#92 = FACE_OUTER_BOUND ( 'NONE', #202, .T. ) ;
#93 = FACE_OUTER_BOUND ( 'NONE', #101, .T. ) ;
#94 = APPROVAL_STATUS ( 'not_yet_approved' ) ;
#95 = FACE_BOUND ( 'NONE', #38, .T. ) ;
#96 = ADVANCED_FACE ( 'NONE', ( #189 ), #103, .T. ) ;
#97 = APPROVAL_DATE_TIME ( #83, #148 ) ;
#98 = DIRECTION ( 'NONE',  ( 4.275831445896958607E-31, 1.000000000000000000, 1.224646799147353207E-16 ) ) ;
#99 = ORIENTED_EDGE ( 'NONE', *, *, #63, .T. ) ;
#100 = CC_DESIGN_PERSON_AND_ORGANIZATION_ASSIGNMENT ( #79, #134, ( #12 ) ) ;
#101 = EDGE_LOOP ( 'NONE', ( #130 ) ) ;
#102 = PERSON_AND_ORGANIZATION ( #60, #193 ) ;
#103 = PLANE ( 'NONE',  #61 ) ;
#104 = CONICAL_SURFACE ( 'NONE', #108, 4.999999999999999112, 0.7853981633974327359 ) ;
#105 = VERTEX_POINT ( 'NONE', #177 ) ;
#106 = DIRECTION ( 'NONE',  ( 4.275831445896958607E-31, 1.000000000000000000, 1.224646799147353207E-16 ) ) ;
#107 = DIRECTION ( 'NONE',  ( -4.237045877651918877E-31, -1.000000000000000000, -1.192622389734054877E-16 ) ) ;
#108 = AXIS2_PLACEMENT_3D ( 'NONE', #197, #57, #184 ) ;
#109 = APPROVAL_DATE_TIME ( #77, #171 ) ;
#110 = DIRECTION ( 'NONE',  ( 4.275831445896958607E-31, 1.000000000000000000, 1.224646799147353207E-16 ) ) ;
#111 = CARTESIAN_POINT ( 'NONE',  ( 7.681258945454893382E-14, -2.694222958124176809E-15, 22.00000000000000000 ) ) ;
#112 = CC_DESIGN_PERSON_AND_ORGANIZATION_ASSIGNMENT ( #209, #90, ( #116 ) ) ;
#113 = LOCAL_TIME ( 10, 21, 2.000000000000000000, #215 ) ;
#114 = CARTESIAN_POINT ( 'NONE',  ( 2.513866563967056016E-13, 3.374459510989167028E-32, 72.00000000000000000 ) ) ;
#115 = EDGE_LOOP ( 'NONE', ( #218 ) ) ;
#116 = PRODUCT ( '57024', '57024', '', ( #56 ) ) ;
#117 = VERTEX_POINT ( 'NONE', #191 ) ;
#118 = CALENDAR_DATE ( 2021, 17, 11 ) ;
#119 = FACE_OUTER_BOUND ( 'NONE', #115, .T. ) ;
#120 = APPROVAL_DATE_TIME ( #167, #207 ) ;
#121 = DIRECTION ( 'NONE',  ( 3.491481338843133355E-15, -1.224646799147353207E-16, 1.000000000000000000 ) ) ;
#122 = APPROVAL_PERSON_ORGANIZATION ( #180, #207, #165 ) ;
#123 = PERSON_AND_ORGANIZATION_ROLE ( 'creator' ) ;
#124 = CYLINDRICAL_SURFACE ( 'NONE', #170, 5.000000000000000000 ) ;
#125 = CYLINDRICAL_SURFACE ( 'NONE', #147, 4.999999999999999112 ) ;
#126 = ADVANCED_FACE ( 'NONE', ( #88 ), #40, .F. ) ;
#127 = UNCERTAINTY_MEASURE_WITH_UNIT (LENGTH_MEASURE( 1.000000000000000082E-05 ), #5, 'distance_accuracy_value', 'NONE');
#128 = CIRCLE ( 'NONE', #220, 4.799999999999998934 ) ;
#129 = EDGE_CURVE ( 'NONE', #214, #214, #128, .T. ) ;
#130 = ORIENTED_EDGE ( 'NONE', *, *, #73, .T. ) ;
#131 = AXIS2_PLACEMENT_3D ( 'NONE', #21, #67, #203 ) ;
#132 = DIRECTION ( 'NONE',  ( -4.275831445896958607E-31, -1.000000000000000000, -1.224646799147353207E-16 ) ) ;
#133 = CC_DESIGN_DATE_AND_TIME_ASSIGNMENT ( #164, #58, ( #34 ) ) ;
#134 = PERSON_AND_ORGANIZATION_ROLE ( 'design_supplier' ) ;
#135 = ORIENTED_EDGE ( 'NONE', *, *, #129, .T. ) ;
#136 = AXIS2_PLACEMENT_3D ( 'NONE', #10, #163, #138 ) ;
#137 = VERTEX_POINT ( 'NONE', #161 ) ;
#138 = DIRECTION ( 'NONE',  ( -4.237045877651918877E-31, -1.000000000000000000, -1.192622389734054877E-16 ) ) ;
#139 = ADVANCED_FACE ( 'NONE', ( #1, #76 ), #124, .T. ) ;
#140 = PERSON_AND_ORGANIZATION_ROLE ( 'creator' ) ;
#141 = CARTESIAN_POINT ( 'NONE',  ( 7.681258945454893382E-14, -2.694222958124176809E-15, 22.00000000000000000 ) ) ;
#142 = CARTESIAN_POINT ( 'NONE',  ( 6.982962677686251919E-16, -2.435834570415085688E-17, 0.1999999999999995670 ) ) ;
#143 = AXIS2_PLACEMENT_3D ( 'NONE', #75, #183, #162 ) ;
#144 = MANIFOLD_SOLID_BREP ( 'Corps-Déplacer/Copier1[1]', #13 ) ;
#145 =( NAMED_UNIT ( * ) PLANE_ANGLE_UNIT ( ) SI_UNIT ( $, .RADIAN. ) );
#146 = ADVANCED_FACE ( 'NONE', ( #95, #71 ), #104, .T. ) ;
#147 = AXIS2_PLACEMENT_3D ( 'NONE', #54, #25, #110 ) ;
#148 = APPROVAL ( #20, 'UNSPECIFIED' ) ;
#149 = DESIGN_CONTEXT ( 'detailed design', #201, 'design' ) ;
#150 = CIRCLE ( 'NONE', #2, 5.000000000000000000 ) ;
#151 =( NAMED_UNIT ( * ) SI_UNIT ( $, .STERADIAN. ) SOLID_ANGLE_UNIT ( ) );
#152 = SHAPE_DEFINITION_REPRESENTATION ( #86, #62 ) ;
#153 = EDGE_CURVE ( 'NONE', #137, #137, #33, .T. ) ;
#154 = PLANE ( 'NONE',  #80 ) ;
#155 = AXIS2_PLACEMENT_3D ( 'NONE', #84, #19, #85 ) ;
#156 = CLOSED_SHELL ( 'NONE', ( #139, #96, #223, #217 ) ) ;
#157 = EDGE_LOOP ( 'NONE', ( #49 ) ) ;
#158 = ADVANCED_FACE ( 'NONE', ( #93, #92 ), #125, .T. ) ;
#159 = DATE_AND_TIME ( #46, #87 ) ;
#160 = APPROVAL_STATUS ( 'not_yet_approved' ) ;
#161 = CARTESIAN_POINT ( 'NONE',  ( 7.681258945454893382E-14, 4.999999999999997335, 22.00000000000000000 ) ) ;
#162 = DIRECTION ( 'NONE',  ( 1.000000000000000000, 0.0000000000000000000, 0.0000000000000000000 ) ) ;
#163 = DIRECTION ( 'NONE',  ( 3.491481338843133355E-15, -1.217917285207545432E-16, 1.000000000000000000 ) ) ;
#164 = DATE_AND_TIME ( #28, #26 ) ;
#165 = APPROVAL_ROLE ( '' ) ;
#166 = DIRECTION ( 'NONE',  ( 3.491481338843133355E-15, -1.217917285207545432E-16, 1.000000000000000000 ) ) ;
#167 = DATE_AND_TIME ( #118, #113 ) ;
#168 = LOCAL_TIME ( 10, 21, 2.000000000000000000, #221 ) ;
#169 = CARTESIAN_POINT ( 'NONE',  ( -1.068957861474239564E-30, 3.749399456654644020E-32, -3.061616997868383141E-16 ) ) ;
#170 = AXIS2_PLACEMENT_3D ( 'NONE', #78, #8, #106 ) ;
#171 = APPROVAL ( #160, 'UNSPECIFIED' ) ;
#172 = ORIENTED_EDGE ( 'NONE', *, *, #63, .F. ) ;
#173 = EDGE_LOOP ( 'NONE', ( #172 ) ) ;
#174 = DATE_TIME_ROLE ( 'classification_date' ) ;
#175 = EDGE_LOOP ( 'NONE', ( #50 ) ) ;
#176 = EDGE_LOOP ( 'NONE', ( #64 ) ) ;
#177 = CARTESIAN_POINT ( 'NONE',  ( 2.513866563967056016E-13, 4.499999999999992006, 72.00000000000000000 ) ) ;
#178 = DIRECTION ( 'NONE',  ( 0.0000000000000000000, 1.000000000000000000, 0.0000000000000000000 ) ) ;
#179 = LOCAL_TIME ( 10, 21, 2.000000000000000000, #194 ) ;
#180 = PERSON_AND_ORGANIZATION ( #60, #193 ) ;
#181 = VERTEX_POINT ( 'NONE', #30 ) ;
#182 = CARTESIAN_POINT ( 'NONE',  ( -2.041121027307184423E-30, 7.119948065315121647E-32, -5.846002968996216498E-16 ) ) ;
#183 = DIRECTION ( 'NONE',  ( 0.0000000000000000000, 0.0000000000000000000, 1.000000000000000000 ) ) ;
#184 = DIRECTION ( 'NONE',  ( 0.0000000000000000000, 1.000000000000000000, 0.0000000000000000000 ) ) ;
#185 = APPROVAL_PERSON_ORGANIZATION ( #102, #148, #17 ) ;
#186 = EDGE_CURVE ( 'NONE', #117, #117, #44, .T. ) ;
#187 = ORIENTED_EDGE ( 'NONE', *, *, #195, .T. ) ;
#188 = ORIENTED_EDGE ( 'NONE', *, *, #195, .F. ) ;
#189 = FACE_OUTER_BOUND ( 'NONE', #205, .T. ) ;
#190 = EDGE_LOOP ( 'NONE', ( #187 ) ) ;
#191 = CARTESIAN_POINT ( 'NONE',  ( 6.982962677686231212E-16, -5.000000000000000000, 0.1999999999999989841 ) ) ;
#192 = FACE_OUTER_BOUND ( 'NONE', #157, .T. ) ;
#193 = ORGANIZATION ( 'UNSPECIFIED', 'UNSPECIFIED', '' ) ;
#194 = COORDINATED_UNIVERSAL_TIME_OFFSET ( 1, 0, .AHEAD. ) ;
#195 = EDGE_CURVE ( 'NONE', #29, #29, #150, .T. ) ;
#196 = APPLICATION_PROTOCOL_DEFINITION ( 'international standard', 'config_control_design', 1994, #70 ) ;
#197 = CARTESIAN_POINT ( 'NONE',  ( 2.496409157272839907E-13, -8.756224613903572559E-15, 71.49999999999998579 ) ) ;
#198 = PERSON_AND_ORGANIZATION ( #60, #193 ) ;
#199 = PRODUCT_RELATED_PRODUCT_CATEGORY ( 'detail', '', ( #116 ) ) ;
#200 = CONICAL_SURFACE ( 'NONE', #72, 5.000000000000000000, 0.7853981633974513876 ) ;
#201 = APPLICATION_CONTEXT ( 'configuration controlled 3d designs of mechanical parts and assemblies' ) ;
#202 = EDGE_LOOP ( 'NONE', ( #222 ) ) ;
#203 = DIRECTION ( 'NONE',  ( 0.0000000000000000000, 1.000000000000000000, 0.0000000000000000000 ) ) ;
#204 = CC_DESIGN_PERSON_AND_ORGANIZATION_ASSIGNMENT ( #82, #14, ( #216 ) ) ;
#205 = EDGE_LOOP ( 'NONE', ( #188 ) ) ;
#206 = DIRECTION ( 'NONE',  ( -3.491481338843133355E-15, 1.224646799147353207E-16, -1.000000000000000000 ) ) ;
#207 = APPROVAL ( #94, 'UNSPECIFIED' ) ;
#208 = DIRECTION ( 'NONE',  ( -4.252335473556634944E-31, -1.000000000000000000, -1.217917285207545432E-16 ) ) ;
#209 = PERSON_AND_ORGANIZATION ( #60, #193 ) ;
#210 = DIRECTION ( 'NONE',  ( -3.491481338843133355E-15, 1.224646799147353207E-16, -1.000000000000000000 ) ) ;
#211 = DIRECTION ( 'NONE',  ( 4.275831445896958607E-31, 1.000000000000000000, 1.224646799147353207E-16 ) ) ;
#212 = CC_DESIGN_APPROVAL ( #148, ( #216 ) ) ;
#213 = PERSON_AND_ORGANIZATION ( #60, #193 ) ;
#214 = VERTEX_POINT ( 'NONE', #39 ) ;
#215 = COORDINATED_UNIVERSAL_TIME_OFFSET ( 1, 0, .AHEAD. ) ;
#216 = SECURITY_CLASSIFICATION ( '', '', #22 ) ;
#217 = ADVANCED_FACE ( 'NONE', ( #192 ), #41, .T. ) ;
#218 = ORIENTED_EDGE ( 'NONE', *, *, #186, .F. ) ;
#219 = CARTESIAN_POINT ( 'NONE',  ( 7.681258945454893382E-14, 3.749399456654640188E-32, 22.00000000000000000 ) ) ;
#220 = AXIS2_PLACEMENT_3D ( 'NONE', #182, #74, #208 ) ;
#221 = COORDINATED_UNIVERSAL_TIME_OFFSET ( 1, 0, .AHEAD. ) ;
#222 = ORIENTED_EDGE ( 'NONE', *, *, #153, .F. ) ;
#223 = ADVANCED_FACE ( 'NONE', ( #43, #119 ), #200, .T. ) ;
ENDSEC;
END-ISO-10303-21;
