ISO-10303-21;
HEADER;
FILE_DESCRIPTION (( 'STEP AP203' ),
    '1' );
FILE_NAME ('57022.step',
    '2021-11-17T09:21:02',
    ( '' ),
    ( '' ),
    'SwSTEP 2.0',
    'SolidWorks 2019',
    '' );
FILE_SCHEMA (( 'CONFIG_CONTROL_DESIGN' ));
ENDSEC;

DATA;
#1 = DIRECTION ( 'NONE',  ( -4.333342374871280669E-31, -1.000000000000000000, -1.219727444046192488E-16 ) ) ;
#2 = DIRECTION ( 'NONE',  ( 0.0000000000000000000, 1.000000000000000000, 0.0000000000000000000 ) ) ;
#3 = DIRECTION ( 'NONE',  ( 3.491481338843133355E-15, -1.217917285207545432E-16, 1.000000000000000000 ) ) ;
#4 = DIRECTION ( 'NONE',  ( -1.000000000000000000, 0.0000000000000000000, 3.469446951953614978E-15 ) ) ;
#5 = FACE_OUTER_BOUND ( 'NONE', #201, .T. ) ;
#6 = ADVANCED_FACE ( 'NONE', ( #238 ), #147, .T. ) ;
#7 = DIRECTION ( 'NONE',  ( 3.491481338843133355E-15, -1.224646799147353207E-16, 1.000000000000000000 ) ) ;
#8 = SECURITY_CLASSIFICATION ( '', '', #202 ) ;
#9 = DESIGN_CONTEXT ( 'detailed design', #118, 'design' ) ;
#10 = ORIENTED_EDGE ( 'NONE', *, *, #121, .F. ) ;
#11 = CIRCLE ( 'NONE', #160, 3.999999999999998224 ) ;
#12 = ORIENTED_EDGE ( 'NONE', *, *, #145, .F. ) ;
#13 =( NAMED_UNIT ( * ) PLANE_ANGLE_UNIT ( ) SI_UNIT ( $, .RADIAN. ) );
#14 = ORIENTED_EDGE ( 'NONE', *, *, #52, .T. ) ;
#15 = LOCAL_TIME ( 10, 21, 2.000000000000000000, #91 ) ;
#16 = ORIENTED_EDGE ( 'NONE', *, *, #99, .T. ) ;
#17 = VERTEX_POINT ( 'NONE', #178 ) ;
#18 = FACE_BOUND ( 'NONE', #109, .T. ) ;
#19 = CARTESIAN_POINT ( 'NONE',  ( 6.982962677686252905E-16, -2.435834570415085996E-17, 0.1999999999999995948 ) ) ;
#20 = CIRCLE ( 'NONE', #198, 3.799999999999998934 ) ;
#21 = CARTESIAN_POINT ( 'NONE',  ( 5.586370142149013368E-14, 3.749399456654641830E-32, 16.00000000000000000 ) ) ;
#22 = CALENDAR_DATE ( 2021, 17, 11 ) ;
#23 = DIRECTION ( 'NONE',  ( 0.0000000000000000000, 1.000000000000000000, 0.0000000000000000000 ) ) ;
#24 = DATE_AND_TIME ( #75, #15 ) ;
#25 = CARTESIAN_POINT ( 'NONE',  ( 0.0000000000000000000, 0.0000000000000000000, 0.0000000000000000000 ) ) ;
#26 = ADVANCED_FACE ( 'NONE', ( #151, #73 ), #149, .F. ) ;
#27 = VERTEX_POINT ( 'NONE', #184 ) ;
#28 = CIRCLE ( 'NONE', #233, 4.999999999999999112 ) ;
#29 = COORDINATED_UNIVERSAL_TIME_OFFSET ( 1, 0, .AHEAD. ) ;
#30 = ORIENTED_EDGE ( 'NONE', *, *, #145, .T. ) ;
#31 = PERSON_AND_ORGANIZATION ( #232, #144 ) ;
#32 = EDGE_CURVE ( 'NONE', #59, #59, #61, .T. ) ;
#33 = EDGE_LOOP ( 'NONE', ( #44 ) ) ;
#34 = CARTESIAN_POINT ( 'NONE',  ( -3.231774959903042207E-30, -3.799999999999998934, -9.256171367577343117E-16 ) ) ;
#35 = EDGE_LOOP ( 'NONE', ( #126 ) ) ;
#36 = FACE_BOUND ( 'NONE', #123, .T. ) ;
#37 = PRODUCT_DEFINITION ( 'UNKNOWN', '', #242, #9 ) ;
#38 = FACE_OUTER_BOUND ( 'NONE', #203, .T. ) ;
#39 = CARTESIAN_POINT ( 'NONE',  ( 6.938615050042357760E-14, 0.0000000000000000000, 19.87298334620741969 ) ) ;
#40 = ADVANCED_FACE ( 'NONE', ( #165 ), #54, .T. ) ;
#41 = FACE_OUTER_BOUND ( 'NONE', #82, .T. ) ;
#42 = CARTESIAN_POINT ( 'NONE',  ( 2.496409157272839907E-13, -8.756224613903572559E-15, 71.49999999999998579 ) ) ;
#43 = APPROVAL_PERSON_ORGANIZATION ( #133, #53, #212 ) ;
#44 = ORIENTED_EDGE ( 'NONE', *, *, #158, .F. ) ;
#45 = PERSON_AND_ORGANIZATION ( #232, #144 ) ;
#46 = PERSON_AND_ORGANIZATION_ROLE ( 'creator' ) ;
#47 = CIRCLE ( 'NONE', #213, 3.999999999999998224 ) ;
#48 = ORIENTED_EDGE ( 'NONE', *, *, #52, .F. ) ;
#49 = APPLICATION_PROTOCOL_DEFINITION ( 'international standard', 'config_control_design', 1994, #154 ) ;
#50 = CC_DESIGN_PERSON_AND_ORGANIZATION_ASSIGNMENT ( #105, #125, ( #242 ) ) ;
#51 = CARTESIAN_POINT ( 'NONE',  ( -4.999999999999929834, 0.0000000000000000000, 19.87298334620743745 ) ) ;
#52 = EDGE_CURVE ( 'NONE', #216, #216, #28, .T. ) ;
#53 = APPROVAL ( #169, 'UNSPECIFIED' ) ;
#54 = PLANE ( 'NONE',  #210 ) ;
#55 = DIRECTION ( 'NONE',  ( 3.491481338843133355E-15, -1.217917285207545432E-16, 1.000000000000000000 ) ) ;
#56 = AXIS2_PLACEMENT_3D ( 'NONE', #19, #55, #168 ) ;
#57 = CARTESIAN_POINT ( 'NONE',  ( -1.615887479951521103E-30, 5.636625551707806507E-32, -4.628085683788671558E-16 ) ) ;
#58 = DIRECTION ( 'NONE',  ( -4.275831445896958607E-31, -1.000000000000000000, -1.224646799147353207E-16 ) ) ;
#59 = VERTEX_POINT ( 'NONE', #116 ) ;
#60 = AXIS2_PLACEMENT_3D ( 'NONE', #188, #211, #1 ) ;
#61 = CIRCLE ( 'NONE', #217, 4.500000000000000888 ) ;
#62 = PERSON_AND_ORGANIZATION_ROLE ( 'creator' ) ;
#63 = LOCAL_TIME ( 10, 21, 2.000000000000000000, #219 ) ;
#64 = ORIENTED_EDGE ( 'NONE', *, *, #99, .F. ) ;
#65 = DATE_TIME_ROLE ( 'creation_date' ) ;
#66 = CC_DESIGN_SECURITY_CLASSIFICATION ( #8, ( #242 ) ) ;
#67 = CALENDAR_DATE ( 2021, 17, 11 ) ;
#68 = DIRECTION ( 'NONE',  ( -3.491481338843133355E-15, 1.224646799147353207E-16, -1.000000000000000000 ) ) ;
#69 = DATE_TIME_ROLE ( 'classification_date' ) ;
#70 = CC_DESIGN_APPROVAL ( #53, ( #8 ) ) ;
#71 = MANIFOLD_SOLID_BREP ( 'Corps-Déplacer/Copier1[2]', #234 ) ;
#72 = DIRECTION ( 'NONE',  ( 4.275831445896958607E-31, 1.000000000000000000, 1.224646799147353207E-16 ) ) ;
#73 = FACE_OUTER_BOUND ( 'NONE', #218, .T. ) ;
#74 = DIRECTION ( 'NONE',  ( 4.275831445896958607E-31, 1.000000000000000000, 1.224646799147353207E-16 ) ) ;
#75 = CALENDAR_DATE ( 2021, 17, 11 ) ;
#76 = CARTESIAN_POINT ( 'NONE',  ( -1.068957861474239564E-30, 3.749399456654644020E-32, -3.061616997868383141E-16 ) ) ;
#77 = DIRECTION ( 'NONE',  ( 3.491481338843133355E-15, -0.0000000000000000000, 1.000000000000000000 ) ) ;
#78 = CC_DESIGN_PERSON_AND_ORGANIZATION_ASSIGNMENT ( #84, #103, ( #83 ) ) ;
#79 = CC_DESIGN_PERSON_AND_ORGANIZATION_ASSIGNMENT ( #31, #182, ( #8 ) ) ;
#80 = CIRCLE ( 'NONE', #60, 4.000000000000000000 ) ;
#81 = ADVANCED_FACE ( 'NONE', ( #135, #5 ), #170, .T. ) ;
#82 = EDGE_LOOP ( 'NONE', ( #156 ) ) ;
#83 = PRODUCT ( '57022', '57022', '', ( #243 ) ) ;
#84 = PERSON_AND_ORGANIZATION ( #232, #144 ) ;
#85 = AXIS2_PLACEMENT_3D ( 'NONE', #148, #192, #74 ) ;
#86 = APPROVAL_DATE_TIME ( #127, #237 ) ;
#87 = DIRECTION ( 'NONE',  ( 1.000000000000000000, 0.0000000000000000000, 0.0000000000000000000 ) ) ;
#88 = EDGE_CURVE ( 'NONE', #27, #27, #47, .T. ) ;
#89 = DIRECTION ( 'NONE',  ( 1.000000000000000000, 0.0000000000000000000, -3.469446951953615767E-15 ) ) ;
#90 = DIRECTION ( 'NONE',  ( 3.491481338843133355E-15, -1.224646799147353207E-16, 1.000000000000000000 ) ) ;
#91 = COORDINATED_UNIVERSAL_TIME_OFFSET ( 1, 0, .AHEAD. ) ;
#92 = CIRCLE ( 'NONE', #200, 4.999999999999999112 ) ;
#93 = CARTESIAN_POINT ( 'NONE',  ( 2.496409157272839907E-13, -8.756224613903572559E-15, 71.49999999999998579 ) ) ;
#94 = DIRECTION ( 'NONE',  ( -3.491481338843133355E-15, 1.224646799147353207E-16, -1.000000000000000000 ) ) ;
#95 = DIRECTION ( 'NONE',  ( -4.252335473556635820E-31, -1.000000000000000000, -1.217917285207545432E-16 ) ) ;
#96 = DIRECTION ( 'NONE',  ( -4.275831445896958607E-31, -1.000000000000000000, -1.224646799147353207E-16 ) ) ;
#97 = ADVANCED_FACE ( 'NONE', ( #18, #38 ), #222, .T. ) ;
#98 = AXIS2_PLACEMENT_3D ( 'NONE', #93, #225, #187 ) ;
#99 = EDGE_CURVE ( 'NONE', #17, #17, #11, .T. ) ;
#100 = CONICAL_SURFACE ( 'NONE', #56, 4.000000000000000000, 0.7853981633974504994 ) ;
#101 =( LENGTH_UNIT ( ) NAMED_UNIT ( * ) SI_UNIT ( .MILLI., .METRE. ) );
#102 = EDGE_LOOP ( 'NONE', ( #64 ) ) ;
#103 = PERSON_AND_ORGANIZATION_ROLE ( 'design_owner' ) ;
#104 = EDGE_LOOP ( 'NONE', ( #10 ) ) ;
#105 = PERSON_AND_ORGANIZATION ( #232, #144 ) ;
#106 = PERSON_AND_ORGANIZATION ( #232, #144 ) ;
#107 = EDGE_LOOP ( 'NONE', ( #12 ) ) ;
#108 = PERSON_AND_ORGANIZATION ( #232, #144 ) ;
#109 = EDGE_LOOP ( 'NONE', ( #224 ) ) ;
#110 = CARTESIAN_POINT ( 'NONE',  ( 5.586370142149013368E-14, 0.0000000000000000000, 16.00000000000000000 ) ) ;
#111 = FACE_OUTER_BOUND ( 'NONE', #35, .T. ) ;
#112 = APPROVAL_PERSON_ORGANIZATION ( #106, #237, #128 ) ;
#113 = PLANE ( 'NONE',  #85 ) ;
#114 = APPROVAL ( #120, 'UNSPECIFIED' ) ;
#115 = CARTESIAN_POINT ( 'NONE',  ( -6.413747168845438786E-31, 0.0000000000000000000, -1.836970198721029934E-16 ) ) ;
#116 = CARTESIAN_POINT ( 'NONE',  ( 2.513866563967056016E-13, 4.499999999999992006, 72.00000000000000000 ) ) ;
#117 = CC_DESIGN_APPROVAL ( #237, ( #37 ) ) ;
#118 = APPLICATION_CONTEXT ( 'configuration controlled 3d designs of mechanical parts and assemblies' ) ;
#119 = UNCERTAINTY_MEASURE_WITH_UNIT (LENGTH_MEASURE( 1.000000000000000082E-05 ), #101, 'distance_accuracy_value', 'NONE');
#120 = APPROVAL_STATUS ( 'not_yet_approved' ) ;
#121 = EDGE_CURVE ( 'NONE', #163, #163, #80, .T. ) ;
#122 = AXIS2_PLACEMENT_3D ( 'NONE', #76, #68, #72 ) ;
#123 = EDGE_LOOP ( 'NONE', ( #30 ) ) ;
#124 = AXIS2_PLACEMENT_3D ( 'NONE', #231, #7, #96 ) ;
#125 = PERSON_AND_ORGANIZATION_ROLE ( 'design_supplier' ) ;
#126 = ORIENTED_EDGE ( 'NONE', *, *, #32, .F. ) ;
#127 = DATE_AND_TIME ( #207, #153 ) ;
#128 = APPROVAL_ROLE ( '' ) ;
#129 = CARTESIAN_POINT ( 'NONE',  ( 5.586370142149013368E-14, 0.0000000000000000000, 16.00000000000000000 ) ) ;
#130 = FACE_OUTER_BOUND ( 'NONE', #104, .T. ) ;
#131 = DIRECTION ( 'NONE',  ( 4.275831445896958607E-31, 1.000000000000000000, 1.224646799147353207E-16 ) ) ;
#132 = AXIS2_PLACEMENT_3D ( 'NONE', #25, #94, #131 ) ;
#133 = PERSON_AND_ORGANIZATION ( #232, #144 ) ;
#134 = DIRECTION ( 'NONE',  ( -3.491481338843133355E-15, 1.224646799147353207E-16, -1.000000000000000000 ) ) ;
#135 = FACE_OUTER_BOUND ( 'NONE', #205, .T. ) ;
#136 = DIRECTION ( 'NONE',  ( 1.000000000000000000, 0.0000000000000000000, -3.491481338843133355E-15 ) ) ;
#137 = LOCAL_TIME ( 10, 21, 2.000000000000000000, #150 ) ;
#138 = APPLICATION_PROTOCOL_DEFINITION ( 'international standard', 'config_control_design', 1994, #118 ) ;
#139 = DATE_AND_TIME ( #67, #63 ) ;
#140 = COORDINATED_UNIVERSAL_TIME_OFFSET ( 1, 0, .AHEAD. ) ;
#141 = ADVANCED_FACE ( 'NONE', ( #36, #130 ), #100, .T. ) ;
#142 = EDGE_LOOP ( 'NONE', ( #179 ) ) ;
#143 = DIRECTION ( 'NONE',  ( 1.000000000000000000, 0.0000000000000000000, -3.491481338843133355E-15 ) ) ;
#144 = ORGANIZATION ( 'UNSPECIFIED', 'UNSPECIFIED', '' ) ;
#145 = EDGE_CURVE ( 'NONE', #221, #221, #20, .T. ) ;
#146 = PRODUCT_RELATED_PRODUCT_CATEGORY ( 'detail', '', ( #83 ) ) ;
#147 = PLANE ( 'NONE',  #122 ) ;
#148 = CARTESIAN_POINT ( 'NONE',  ( 2.513866563967056016E-13, 3.374459510989167028E-32, 72.00000000000000000 ) ) ;
#149 = TOROIDAL_SURFACE ( 'NONE', #161, 11.99999999999999645, 8.000000000000000000 ) ;
#150 = COORDINATED_UNIVERSAL_TIME_OFFSET ( 1, 0, .AHEAD. ) ;
#151 = FACE_OUTER_BOUND ( 'NONE', #33, .T. ) ;
#152 = FACE_OUTER_BOUND ( 'NONE', #102, .T. ) ;
#153 = LOCAL_TIME ( 10, 21, 2.000000000000000000, #140 ) ;
#154 = APPLICATION_CONTEXT ( 'configuration controlled 3d designs of mechanical parts and assemblies' ) ;
#155 = APPROVAL_STATUS ( 'not_yet_approved' ) ;
#156 = ORIENTED_EDGE ( 'NONE', *, *, #121, .T. ) ;
#157 = DATE_AND_TIME ( #180, #241 ) ;
#158 = EDGE_CURVE ( 'NONE', #186, #186, #92, .T. ) ;
#159 = CARTESIAN_POINT ( 'NONE',  ( 6.982962677686236142E-16, -4.000000000000000000, 0.1999999999999991229 ) ) ;
#160 = AXIS2_PLACEMENT_3D ( 'NONE', #229, #227, #89 ) ;
#161 = AXIS2_PLACEMENT_3D ( 'NONE', #129, #172, #143 ) ;
#162 = DIRECTION ( 'NONE',  ( 0.0000000000000000000, 0.0000000000000000000, 1.000000000000000000 ) ) ;
#163 = VERTEX_POINT ( 'NONE', #159 ) ;
#164 = DIRECTION ( 'NONE',  ( -3.491481338843133355E-15, 1.224646799147353207E-16, -1.000000000000000000 ) ) ;
#165 = FACE_OUTER_BOUND ( 'NONE', #183, .T. ) ;
#166 = DATE_AND_TIME ( #22, #137 ) ;
#167 = CLOSED_SHELL ( 'NONE', ( #81, #97, #177, #26, #236 ) ) ;
#168 = DIRECTION ( 'NONE',  ( -4.333342374871280669E-31, -1.000000000000000000, -1.219727444046192488E-16 ) ) ;
#169 = APPROVAL_STATUS ( 'not_yet_approved' ) ;
#170 = CYLINDRICAL_SURFACE ( 'NONE', #132, 4.999999999999999112 ) ;
#171 = CC_DESIGN_DATE_AND_TIME_ASSIGNMENT ( #139, #65, ( #37 ) ) ;
#172 = DIRECTION ( 'NONE',  ( 3.491481338843133355E-15, -0.0000000000000000000, 1.000000000000000000 ) ) ;
#173 = CARTESIAN_POINT ( 'NONE',  ( 2.496409157272839907E-13, 4.999999999999990230, 71.49999999999998579 ) ) ;
#174 =( GEOMETRIC_REPRESENTATION_CONTEXT ( 3 ) GLOBAL_UNCERTAINTY_ASSIGNED_CONTEXT ( ( #119 ) ) GLOBAL_UNIT_ASSIGNED_CONTEXT ( ( #101, #13, #204 ) ) REPRESENTATION_CONTEXT ( 'NONE', 'WORKASPACE' ) );
#175 = CC_DESIGN_DATE_AND_TIME_ASSIGNMENT ( #24, #69, ( #8 ) ) ;
#176 = CC_DESIGN_APPROVAL ( #114, ( #242 ) ) ;
#177 = ADVANCED_FACE ( 'NONE', ( #111 ), #113, .F. ) ;
#178 = CARTESIAN_POINT ( 'NONE',  ( 4.000000000000054179, 0.0000000000000000000, 15.99999999999998579 ) ) ;
#179 = ORIENTED_EDGE ( 'NONE', *, *, #88, .F. ) ;
#180 = CALENDAR_DATE ( 2021, 17, 11 ) ;
#181 = ORIENTED_EDGE ( 'NONE', *, *, #88, .T. ) ;
#182 = PERSON_AND_ORGANIZATION_ROLE ( 'classification_officer' ) ;
#183 = EDGE_LOOP ( 'NONE', ( #181 ) ) ;
#184 = CARTESIAN_POINT ( 'NONE',  ( 4.000000000000054179, 0.0000000000000000000, 15.99999999999998579 ) ) ;
#185 = ORIENTED_EDGE ( 'NONE', *, *, #158, .T. ) ;
#186 = VERTEX_POINT ( 'NONE', #51 ) ;
#187 = DIRECTION ( 'NONE',  ( 0.0000000000000000000, 1.000000000000000000, 0.0000000000000000000 ) ) ;
#188 = CARTESIAN_POINT ( 'NONE',  ( 6.982962677686252905E-16, -2.435834570415085996E-17, 0.1999999999999995948 ) ) ;
#189 = CARTESIAN_POINT ( 'NONE',  ( 2.513866563967056016E-13, -8.817456953860941711E-15, 72.00000000000000000 ) ) ;
#190 = APPROVAL_PERSON_ORGANIZATION ( #45, #114, #199 ) ;
#191 = ADVANCED_FACE ( 'NONE', ( #214, #41 ), #194, .T. ) ;
#192 = DIRECTION ( 'NONE',  ( -3.491481338843133355E-15, 1.224646799147353207E-16, -1.000000000000000000 ) ) ;
#193 = CC_DESIGN_PERSON_AND_ORGANIZATION_ASSIGNMENT ( #223, #46, ( #242 ) ) ;
#194 = CYLINDRICAL_SURFACE ( 'NONE', #235, 4.000000000000000000 ) ;
#195 = APPROVAL_DATE_TIME ( #166, #53 ) ;
#196 = PLANE ( 'NONE',  #124 ) ;
#197 = CC_DESIGN_PERSON_AND_ORGANIZATION_ASSIGNMENT ( #108, #62, ( #37 ) ) ;
#198 = AXIS2_PLACEMENT_3D ( 'NONE', #57, #3, #95 ) ;
#199 = APPROVAL_ROLE ( '' ) ;
#200 = AXIS2_PLACEMENT_3D ( 'NONE', #39, #209, #4 ) ;
#201 = EDGE_LOOP ( 'NONE', ( #185 ) ) ;
#202 = SECURITY_CLASSIFICATION_LEVEL ( 'unclassified' ) ;
#203 = EDGE_LOOP ( 'NONE', ( #48 ) ) ;
#204 =( NAMED_UNIT ( * ) SI_UNIT ( $, .STERADIAN. ) SOLID_ANGLE_UNIT ( ) );
#205 = EDGE_LOOP ( 'NONE', ( #14 ) ) ;
#206 = CARTESIAN_POINT ( 'NONE',  ( 0.0000000000000000000, 0.0000000000000000000, 0.0000000000000000000 ) ) ;
#207 = CALENDAR_DATE ( 2021, 17, 11 ) ;
#208 = DIRECTION ( 'NONE',  ( 1.000000000000000000, 0.0000000000000000000, -3.469446951953615767E-15 ) ) ;
#209 = DIRECTION ( 'NONE',  ( 3.491481338843133355E-15, -0.0000000000000000000, 1.000000000000000000 ) ) ;
#210 = AXIS2_PLACEMENT_3D ( 'NONE', #21, #90, #58 ) ;
#211 = DIRECTION ( 'NONE',  ( 3.491481338843133355E-15, -1.217917285207545432E-16, 1.000000000000000000 ) ) ;
#212 = APPROVAL_ROLE ( '' ) ;
#213 = AXIS2_PLACEMENT_3D ( 'NONE', #110, #215, #208 ) ;
#214 = FACE_OUTER_BOUND ( 'NONE', #142, .T. ) ;
#215 = DIRECTION ( 'NONE',  ( 3.491481338843133355E-15, -0.0000000000000000000, 1.000000000000000000 ) ) ;
#216 = VERTEX_POINT ( 'NONE', #173 ) ;
#217 = AXIS2_PLACEMENT_3D ( 'NONE', #189, #134, #23 ) ;
#218 = EDGE_LOOP ( 'NONE', ( #16 ) ) ;
#219 = COORDINATED_UNIVERSAL_TIME_OFFSET ( 1, 0, .AHEAD. ) ;
#220 = ADVANCED_BREP_SHAPE_REPRESENTATION ( '57022', ( #240, #71, #228 ), #174 ) ;
#221 = VERTEX_POINT ( 'NONE', #34 ) ;
#222 = CONICAL_SURFACE ( 'NONE', #98, 4.999999999999999112, 0.7853981633974327359 ) ;
#223 = PERSON_AND_ORGANIZATION ( #232, #144 ) ;
#224 = ORIENTED_EDGE ( 'NONE', *, *, #32, .T. ) ;
#225 = DIRECTION ( 'NONE',  ( -3.491481338843133355E-15, 1.224646799147353207E-16, -1.000000000000000000 ) ) ;
#226 = PRODUCT_DEFINITION_SHAPE ( 'NONE', 'NONE',  #37 ) ;
#227 = DIRECTION ( 'NONE',  ( 3.491481338843133355E-15, -0.0000000000000000000, 1.000000000000000000 ) ) ;
#228 = AXIS2_PLACEMENT_3D ( 'NONE', #206, #162, #87 ) ;
#229 = CARTESIAN_POINT ( 'NONE',  ( 5.586370142149013368E-14, 0.0000000000000000000, 16.00000000000000000 ) ) ;
#230 = SHAPE_DEFINITION_REPRESENTATION ( #226, #220 ) ;
#231 = CARTESIAN_POINT ( 'NONE',  ( 5.586370142149013368E-14, 3.749399456654641830E-32, 16.00000000000000000 ) ) ;
#232 = PERSON ( 'UNSPECIFIED', 'UNSPECIFIED', 'UNSPECIFIED', ('UNSPECIFIED'), ('UNSPECIFIED'), ('UNSPECIFIED') ) ;
#233 = AXIS2_PLACEMENT_3D ( 'NONE', #42, #164, #2 ) ;
#234 = CLOSED_SHELL ( 'NONE', ( #191, #40, #141, #6 ) ) ;
#235 = AXIS2_PLACEMENT_3D ( 'NONE', #115, #77, #136 ) ;
#236 = ADVANCED_FACE ( 'NONE', ( #152 ), #196, .F. ) ;
#237 = APPROVAL ( #155, 'UNSPECIFIED' ) ;
#238 = FACE_OUTER_BOUND ( 'NONE', #107, .T. ) ;
#239 = APPROVAL_DATE_TIME ( #157, #114 ) ;
#240 = MANIFOLD_SOLID_BREP ( 'Corps-Déplacer/Copier1[1]', #167 ) ;
#241 = LOCAL_TIME ( 10, 21, 2.000000000000000000, #29 ) ;
#242 = PRODUCT_DEFINITION_FORMATION_WITH_SPECIFIED_SOURCE ( 'ANY', '', #83, .NOT_KNOWN. ) ;
#243 = MECHANICAL_CONTEXT ( 'NONE', #154, 'mechanical' ) ;
ENDSEC;
END-ISO-10303-21;
