ISO-10303-21;
HEADER;
FILE_DESCRIPTION (( 'STEP AP203' ),
    '1' );
FILE_NAME ('57021.step',
    '2021-11-17T09:21:01',
    ( '' ),
    ( '' ),
    'SwSTEP 2.0',
    'SolidWorks 2019',
    '' );
FILE_SCHEMA (( 'CONFIG_CONTROL_DESIGN' ));
ENDSEC;

DATA;
#1 = DIRECTION ( 'NONE',  ( -4.275831445896958607E-31, -1.000000000000000000, -1.224646799147353207E-16 ) ) ;
#2 = AXIS2_PLACEMENT_3D ( 'NONE', #27, #213, #8 ) ;
#3 = CC_DESIGN_PERSON_AND_ORGANIZATION_ASSIGNMENT ( #133, #74, ( #211 ) ) ;
#4 = DIRECTION ( 'NONE',  ( -3.491481338843133355E-15, 1.224646799147353207E-16, -1.000000000000000000 ) ) ;
#5 = PLANE ( 'NONE',  #32 ) ;
#6 = PRODUCT_DEFINITION_SHAPE ( 'NONE', 'NONE',  #211 ) ;
#7 = CARTESIAN_POINT ( 'NONE',  ( 0.0000000000000000000, 0.0000000000000000000, 0.0000000000000000000 ) ) ;
#8 = DIRECTION ( 'NONE',  ( 1.000000000000000000, 0.0000000000000000000, -3.491481338843133355E-15 ) ) ;
#9 = DIRECTION ( 'NONE',  ( 3.491481338843133355E-15, -1.217917285207545432E-16, 1.000000000000000000 ) ) ;
#10 = ADVANCED_FACE ( 'NONE', ( #139 ), #194, .F. ) ;
#11 = SHAPE_DEFINITION_REPRESENTATION ( #6, #25 ) ;
#12 = COORDINATED_UNIVERSAL_TIME_OFFSET ( 1, 0, .AHEAD. ) ;
#13 = ORIENTED_EDGE ( 'NONE', *, *, #109, .T. ) ;
#14 = APPROVAL_DATE_TIME ( #150, #86 ) ;
#15 = PERSON_AND_ORGANIZATION_ROLE ( 'creator' ) ;
#16 = ADVANCED_FACE ( 'NONE', ( #196, #180 ), #37, .F. ) ;
#17 = DIRECTION ( 'NONE',  ( 0.0000000000000000000, 1.000000000000000000, 0.0000000000000000000 ) ) ;
#18 = AXIS2_PLACEMENT_3D ( 'NONE', #174, #225, #17 ) ;
#19 = CARTESIAN_POINT ( 'NONE',  ( 5.586370142149013368E-14, 0.0000000000000000000, 16.00000000000000000 ) ) ;
#20 = CARTESIAN_POINT ( 'NONE',  ( 5.586370142149013368E-14, 2.999519565323712479E-32, 16.00000000000000000 ) ) ;
#21 = DIRECTION ( 'NONE',  ( -4.126992737972647881E-31, -1.000000000000000000, -1.239088197126290817E-16 ) ) ;
#22 = CIRCLE ( 'NONE', #173, 3.499999999999997780 ) ;
#23 = FACE_BOUND ( 'NONE', #209, .T. ) ;
#24 = VERTEX_POINT ( 'NONE', #234 ) ;
#25 = ADVANCED_BREP_SHAPE_REPRESENTATION ( '57021', ( #171, #85, #212 ), #239 ) ;
#26 = AXIS2_PLACEMENT_3D ( 'NONE', #42, #114, #241 ) ;
#27 = CARTESIAN_POINT ( 'NONE',  ( -6.413747168845438786E-31, 0.0000000000000000000, -1.836970198721029934E-16 ) ) ;
#28 = PRODUCT_DEFINITION_FORMATION_WITH_SPECIFIED_SOURCE ( 'ANY', '', #182, .NOT_KNOWN. ) ;
#29 = APPLICATION_CONTEXT ( 'configuration controlled 3d designs of mechanical parts and assemblies' ) ;
#30 = DIRECTION ( 'NONE',  ( 3.491481338843133355E-15, -0.0000000000000000000, 1.000000000000000000 ) ) ;
#31 = ORIENTED_EDGE ( 'NONE', *, *, #92, .T. ) ;
#32 = AXIS2_PLACEMENT_3D ( 'NONE', #44, #229, #206 ) ;
#33 = EDGE_LOOP ( 'NONE', ( #54 ) ) ;
#34 = EDGE_CURVE ( 'NONE', #47, #47, #121, .T. ) ;
#35 = PERSON_AND_ORGANIZATION ( #70, #88 ) ;
#36 = CARTESIAN_POINT ( 'NONE',  ( 0.0000000000000000000, 0.0000000000000000000, 0.0000000000000000000 ) ) ;
#37 = TOROIDAL_SURFACE ( 'NONE', #152, 11.49999999999999822, 8.000000000000000000 ) ;
#38 = PLANE ( 'NONE',  #195 ) ;
#39 = AXIS2_PLACEMENT_3D ( 'NONE', #207, #122, #21 ) ;
#40 = COORDINATED_UNIVERSAL_TIME_OFFSET ( 1, 0, .AHEAD. ) ;
#41 = ADVANCED_FACE ( 'NONE', ( #119 ), #5, .F. ) ;
#42 = CARTESIAN_POINT ( 'NONE',  ( 2.182175836776958284E-13, -7.654042494670957804E-15, 62.50000000000000000 ) ) ;
#43 = CARTESIAN_POINT ( 'NONE',  ( 5.586370142149013368E-14, 2.999519565323712479E-32, 16.00000000000000000 ) ) ;
#44 = CARTESIAN_POINT ( 'NONE',  ( 2.199633243471174140E-13, 2.624579619658239319E-32, 63.00000000000000000 ) ) ;
#45 = CIRCLE ( 'NONE', #198, 3.499999999999997780 ) ;
#46 = DIRECTION ( 'NONE',  ( 1.000000000000000000, 0.0000000000000000000, -3.965082230804132981E-15 ) ) ;
#47 = VERTEX_POINT ( 'NONE', #143 ) ;
#48 = PERSON_AND_ORGANIZATION ( #70, #88 ) ;
#49 = APPROVAL ( #60, 'UNSPECIFIED' ) ;
#50 = CC_DESIGN_APPROVAL ( #86, ( #28 ) ) ;
#51 = EDGE_LOOP ( 'NONE', ( #13 ) ) ;
#52 = VERTEX_POINT ( 'NONE', #125 ) ;
#53 = APPLICATION_CONTEXT ( 'configuration controlled 3d designs of mechanical parts and assemblies' ) ;
#54 = ORIENTED_EDGE ( 'NONE', *, *, #138, .F. ) ;
#55 = ORIENTED_EDGE ( 'NONE', *, *, #199, .F. ) ;
#56 = CALENDAR_DATE ( 2021, 17, 11 ) ;
#57 = CONICAL_SURFACE ( 'NONE', #26, 4.000000000000000888, 0.7853981633974482790 ) ;
#58 = DATE_AND_TIME ( #112, #145 ) ;
#59 = DIRECTION ( 'NONE',  ( 4.275831445896958607E-31, 1.000000000000000000, 1.224646799147353207E-16 ) ) ;
#60 = APPROVAL_STATUS ( 'not_yet_approved' ) ;
#61 = APPROVAL_DATE_TIME ( #58, #228 ) ;
#62 = DIRECTION ( 'NONE',  ( 3.491481338843133355E-15, -1.217917285207545432E-16, 1.000000000000000000 ) ) ;
#63 = FACE_OUTER_BOUND ( 'NONE', #91, .T. ) ;
#64 = DIRECTION ( 'NONE',  ( 3.491481338843133355E-15, -1.224646799147353207E-16, 1.000000000000000000 ) ) ;
#65 = CYLINDRICAL_SURFACE ( 'NONE', #2, 3.499999999999998668 ) ;
#66 = CIRCLE ( 'NONE', #18, 3.500000000000000444 ) ;
#67 = VERTEX_POINT ( 'NONE', #197 ) ;
#68 = DIRECTION ( 'NONE',  ( 0.0000000000000000000, 1.000000000000000000, 0.0000000000000000000 ) ) ;
#69 = ADVANCED_FACE ( 'NONE', ( #120 ), #38, .T. ) ;
#70 = PERSON ( 'UNSPECIFIED', 'UNSPECIFIED', 'UNSPECIFIED', ('UNSPECIFIED'), ('UNSPECIFIED'), ('UNSPECIFIED') ) ;
#71 = APPROVAL_ROLE ( '' ) ;
#72 = CC_DESIGN_SECURITY_CLASSIFICATION ( #84, ( #28 ) ) ;
#73 = ORIENTED_EDGE ( 'NONE', *, *, #138, .T. ) ;
#74 = PERSON_AND_ORGANIZATION_ROLE ( 'creator' ) ;
#75 = SECURITY_CLASSIFICATION_LEVEL ( 'unclassified' ) ;
#76 = DATE_TIME_ROLE ( 'classification_date' ) ;
#77 = CIRCLE ( 'NONE', #80, 4.000000000000000888 ) ;
#78 = FACE_OUTER_BOUND ( 'NONE', #129, .T. ) ;
#79 = DIRECTION ( 'NONE',  ( -3.491481338843133355E-15, 1.224646799147353207E-16, -1.000000000000000000 ) ) ;
#80 = AXIS2_PLACEMENT_3D ( 'NONE', #87, #232, #68 ) ;
#81 = PLANE ( 'NONE',  #231 ) ;
#82 = DIRECTION ( 'NONE',  ( 1.000000000000000000, 0.0000000000000000000, -3.491481338843133355E-15 ) ) ;
#83 =( LENGTH_UNIT ( ) NAMED_UNIT ( * ) SI_UNIT ( .MILLI., .METRE. ) );
#84 = SECURITY_CLASSIFICATION ( '', '', #75 ) ;
#85 = MANIFOLD_SOLID_BREP ( 'Corps-Déplacer/Copier1[2]', #230 ) ;
#86 = APPROVAL ( #224, 'UNSPECIFIED' ) ;
#87 = CARTESIAN_POINT ( 'NONE',  ( 2.182175836776958284E-13, -7.654042494670957804E-15, 62.50000000000000000 ) ) ;
#88 = ORGANIZATION ( 'UNSPECIFIED', 'UNSPECIFIED', '' ) ;
#89 = CC_DESIGN_DATE_AND_TIME_ASSIGNMENT ( #222, #76, ( #84 ) ) ;
#90 = PERSON_AND_ORGANIZATION_ROLE ( 'design_owner' ) ;
#91 = EDGE_LOOP ( 'NONE', ( #202 ) ) ;
#92 = EDGE_CURVE ( 'NONE', #123, #123, #184, .T. ) ;
#93 = DATE_AND_TIME ( #96, #147 ) ;
#94 = EDGE_LOOP ( 'NONE', ( #159 ) ) ;
#95 = CALENDAR_DATE ( 2021, 17, 11 ) ;
#96 = CALENDAR_DATE ( 2021, 17, 11 ) ;
#97 = LOCAL_TIME ( 10, 21, 1.000000000000000000, #205 ) ;
#98 = ADVANCED_FACE ( 'NONE', ( #117 ), #81, .T. ) ;
#99 = CARTESIAN_POINT ( 'NONE',  ( -8.551662891793915461E-31, 2.999519565323715216E-32, -2.449293598294706414E-16 ) ) ;
#100 = DIRECTION ( 'NONE',  ( 1.000000000000000000, 0.0000000000000000000, -3.965082230804132981E-15 ) ) ;
#101 = EDGE_LOOP ( 'NONE', ( #31 ) ) ;
#102 = CYLINDRICAL_SURFACE ( 'NONE', #204, 4.000000000000000000 ) ;
#103 = PRODUCT_RELATED_PRODUCT_CATEGORY ( 'detail', '', ( #182 ) ) ;
#104 = CARTESIAN_POINT ( 'NONE',  ( 5.586370142149013368E-14, 0.0000000000000000000, 16.00000000000000000 ) ) ;
#105 = VERTEX_POINT ( 'NONE', #127 ) ;
#106 = CLOSED_SHELL ( 'NONE', ( #124, #146, #41, #16, #10 ) ) ;
#107 = AXIS2_PLACEMENT_3D ( 'NONE', #137, #62, #154 ) ;
#108 = VERTEX_POINT ( 'NONE', #186 ) ;
#109 = EDGE_CURVE ( 'NONE', #67, #67, #22, .T. ) ;
#110 = APPROVAL_PERSON_ORGANIZATION ( #165, #228, #71 ) ;
#111 = ORIENTED_EDGE ( 'NONE', *, *, #219, .T. ) ;
#112 = CALENDAR_DATE ( 2021, 17, 11 ) ;
#113 = PERSON_AND_ORGANIZATION ( #70, #88 ) ;
#114 = DIRECTION ( 'NONE',  ( -3.491481338843133355E-15, 1.224646799147353207E-16, -1.000000000000000000 ) ) ;
#115 = AXIS2_PLACEMENT_3D ( 'NONE', #43, #64, #227 ) ;
#116 = APPROVAL_PERSON_ORGANIZATION ( #118, #49, #155 ) ;
#117 = FACE_OUTER_BOUND ( 'NONE', #177, .T. ) ;
#118 = PERSON_AND_ORGANIZATION ( #70, #88 ) ;
#119 = FACE_OUTER_BOUND ( 'NONE', #33, .T. ) ;
#120 = FACE_OUTER_BOUND ( 'NONE', #170, .T. ) ;
#121 = CIRCLE ( 'NONE', #39, 3.500000000000000000 ) ;
#122 = DIRECTION ( 'NONE',  ( 3.491481338843133355E-15, -1.217917285207545432E-16, 1.000000000000000000 ) ) ;
#123 = VERTEX_POINT ( 'NONE', #166 ) ;
#124 = ADVANCED_FACE ( 'NONE', ( #78, #158 ), #102, .T. ) ;
#125 = CARTESIAN_POINT ( 'NONE',  ( 3.500000000000053735, 0.0000000000000000000, 15.99999999999998579 ) ) ;
#126 = CONICAL_SURFACE ( 'NONE', #178, 3.500000000000000000, 0.7853981633974504994 ) ;
#127 = CARTESIAN_POINT ( 'NONE',  ( -3.999999999999934275, 0.0000000000000000000, 18.78388218141503074 ) ) ;
#128 = CC_DESIGN_PERSON_AND_ORGANIZATION_ASSIGNMENT ( #113, #172, ( #28 ) ) ;
#129 = EDGE_LOOP ( 'NONE', ( #111 ) ) ;
#130 = FACE_OUTER_BOUND ( 'NONE', #220, .T. ) ;
#131 = EDGE_LOOP ( 'NONE', ( #132 ) ) ;
#132 = ORIENTED_EDGE ( 'NONE', *, *, #162, .F. ) ;
#133 = PERSON_AND_ORGANIZATION ( #70, #88 ) ;
#134 = DIRECTION ( 'NONE',  ( 3.491481338843133355E-15, -1.224646799147353207E-16, 1.000000000000000000 ) ) ;
#135 = DIRECTION ( 'NONE',  ( -1.000000000000000000, 0.0000000000000000000, 3.469446951953614189E-15 ) ) ;
#136 = DATE_AND_TIME ( #95, #163 ) ;
#137 = CARTESIAN_POINT ( 'NONE',  ( -1.403270706273689094E-30, 4.894964294904146201E-32, -4.019127041184899089E-16 ) ) ;
#138 = EDGE_CURVE ( 'NONE', #24, #24, #66, .T. ) ;
#139 = FACE_OUTER_BOUND ( 'NONE', #179, .T. ) ;
#140 = CC_DESIGN_APPROVAL ( #228, ( #211 ) ) ;
#141 = DIRECTION ( 'NONE',  ( -4.126992737972647881E-31, -1.000000000000000000, -1.239088197126290817E-16 ) ) ;
#142 = FACE_OUTER_BOUND ( 'NONE', #149, .T. ) ;
#143 = CARTESIAN_POINT ( 'NONE',  ( 6.982962677686240087E-16, -3.500000000000000000, 0.1999999999999992339 ) ) ;
#144 = DIRECTION ( 'NONE',  ( 0.0000000000000000000, 0.0000000000000000000, 1.000000000000000000 ) ) ;
#145 = LOCAL_TIME ( 10, 21, 1.000000000000000000, #148 ) ;
#146 = ADVANCED_FACE ( 'NONE', ( #23, #63 ), #57, .T. ) ;
#147 = LOCAL_TIME ( 10, 21, 1.000000000000000000, #175 ) ;
#148 = COORDINATED_UNIVERSAL_TIME_OFFSET ( 1, 0, .AHEAD. ) ;
#149 = EDGE_LOOP ( 'NONE', ( #236 ) ) ;
#150 = DATE_AND_TIME ( #153, #97 ) ;
#151 = ORIENTED_EDGE ( 'NONE', *, *, #109, .F. ) ;
#152 = AXIS2_PLACEMENT_3D ( 'NONE', #104, #210, #82 ) ;
#153 = CALENDAR_DATE ( 2021, 17, 11 ) ;
#154 = DIRECTION ( 'NONE',  ( -4.252335473556634944E-31, -1.000000000000000000, -1.217917285207545679E-16 ) ) ;
#155 = APPROVAL_ROLE ( '' ) ;
#156 = CARTESIAN_POINT ( 'NONE',  ( 6.558357410743857348E-14, 0.0000000000000000000, 18.78388218141501653 ) ) ;
#157 = DATE_TIME_ROLE ( 'creation_date' ) ;
#158 = FACE_OUTER_BOUND ( 'NONE', #94, .T. ) ;
#159 = ORIENTED_EDGE ( 'NONE', *, *, #162, .T. ) ;
#160 = ORIENTED_EDGE ( 'NONE', *, *, #34, .F. ) ;
#161 =( NAMED_UNIT ( * ) SI_UNIT ( $, .STERADIAN. ) SOLID_ANGLE_UNIT ( ) );
#162 = EDGE_CURVE ( 'NONE', #105, #105, #226, .T. ) ;
#163 = LOCAL_TIME ( 10, 21, 1.000000000000000000, #40 ) ;
#164 = DIRECTION ( 'NONE',  ( 1.000000000000000000, 0.0000000000000000000, 0.0000000000000000000 ) ) ;
#165 = PERSON_AND_ORGANIZATION ( #70, #88 ) ;
#166 = CARTESIAN_POINT ( 'NONE',  ( -2.806541412547378187E-30, -3.299999999999998934, -8.038254082369798178E-16 ) ) ;
#167 = DESIGN_CONTEXT ( 'detailed design', #29, 'design' ) ;
#168 = CC_DESIGN_PERSON_AND_ORGANIZATION_ASSIGNMENT ( #191, #208, ( #84 ) ) ;
#169 = APPROVAL_STATUS ( 'not_yet_approved' ) ;
#170 = EDGE_LOOP ( 'NONE', ( #221 ) ) ;
#171 = MANIFOLD_SOLID_BREP ( 'Corps-Déplacer/Copier1[1]', #106 ) ;
#172 = PERSON_AND_ORGANIZATION_ROLE ( 'design_supplier' ) ;
#173 = AXIS2_PLACEMENT_3D ( 'NONE', #19, #193, #100 ) ;
#174 = CARTESIAN_POINT ( 'NONE',  ( 2.199633243471174140E-13, -7.715274834628325378E-15, 63.00000000000000000 ) ) ;
#175 = COORDINATED_UNIVERSAL_TIME_OFFSET ( 1, 0, .AHEAD. ) ;
#176 = FACE_OUTER_BOUND ( 'NONE', #237, .T. ) ;
#177 = EDGE_LOOP ( 'NONE', ( #188 ) ) ;
#178 = AXIS2_PLACEMENT_3D ( 'NONE', #243, #9, #141 ) ;
#179 = EDGE_LOOP ( 'NONE', ( #151 ) ) ;
#180 = FACE_OUTER_BOUND ( 'NONE', #51, .T. ) ;
#181 = CC_DESIGN_APPROVAL ( #49, ( #84 ) ) ;
#182 = PRODUCT ( '57021', '57021', '', ( #216 ) ) ;
#183 = ADVANCED_FACE ( 'NONE', ( #192, #176 ), #126, .T. ) ;
#184 = CIRCLE ( 'NONE', #107, 3.299999999999998934 ) ;
#185 = APPLICATION_PROTOCOL_DEFINITION ( 'international standard', 'config_control_design', 1994, #53 ) ;
#186 = CARTESIAN_POINT ( 'NONE',  ( 2.182175836776958284E-13, 3.999999999999993339, 62.50000000000000000 ) ) ;
#187 = AXIS2_PLACEMENT_3D ( 'NONE', #156, #223, #135 ) ;
#188 = ORIENTED_EDGE ( 'NONE', *, *, #92, .F. ) ;
#189 = ADVANCED_FACE ( 'NONE', ( #130, #142 ), #65, .T. ) ;
#190 = DIRECTION ( 'NONE',  ( 4.275831445896958607E-31, 1.000000000000000000, 1.224646799147353207E-16 ) ) ;
#191 = PERSON_AND_ORGANIZATION ( #70, #88 ) ;
#192 = FACE_BOUND ( 'NONE', #101, .T. ) ;
#193 = DIRECTION ( 'NONE',  ( 3.491481338843133355E-15, -0.0000000000000000000, 1.000000000000000000 ) ) ;
#194 = PLANE ( 'NONE',  #115 ) ;
#195 = AXIS2_PLACEMENT_3D ( 'NONE', #20, #134, #1 ) ;
#196 = FACE_OUTER_BOUND ( 'NONE', #131, .T. ) ;
#197 = CARTESIAN_POINT ( 'NONE',  ( 3.500000000000053735, 0.0000000000000000000, 15.99999999999998579 ) ) ;
#198 = AXIS2_PLACEMENT_3D ( 'NONE', #218, #30, #46 ) ;
#199 = EDGE_CURVE ( 'NONE', #52, #52, #45, .T. ) ;
#200 = CC_DESIGN_PERSON_AND_ORGANIZATION_ASSIGNMENT ( #48, #90, ( #182 ) ) ;
#201 = APPLICATION_PROTOCOL_DEFINITION ( 'international standard', 'config_control_design', 1994, #29 ) ;
#202 = ORIENTED_EDGE ( 'NONE', *, *, #219, .F. ) ;
#203 = CC_DESIGN_DATE_AND_TIME_ASSIGNMENT ( #136, #157, ( #211 ) ) ;
#204 = AXIS2_PLACEMENT_3D ( 'NONE', #36, #4, #59 ) ;
#205 = COORDINATED_UNIVERSAL_TIME_OFFSET ( 1, 0, .AHEAD. ) ;
#206 = DIRECTION ( 'NONE',  ( 4.275831445896958607E-31, 1.000000000000000000, 1.224646799147353207E-16 ) ) ;
#207 = CARTESIAN_POINT ( 'NONE',  ( 6.982962677686254878E-16, -2.435834570415086612E-17, 0.1999999999999996503 ) ) ;
#208 = PERSON_AND_ORGANIZATION_ROLE ( 'classification_officer' ) ;
#209 = EDGE_LOOP ( 'NONE', ( #73 ) ) ;
#210 = DIRECTION ( 'NONE',  ( 3.491481338843133355E-15, -0.0000000000000000000, 1.000000000000000000 ) ) ;
#211 = PRODUCT_DEFINITION ( 'UNKNOWN', '', #28, #167 ) ;
#212 = AXIS2_PLACEMENT_3D ( 'NONE', #7, #144, #164 ) ;
#213 = DIRECTION ( 'NONE',  ( 3.491481338843133355E-15, -0.0000000000000000000, 1.000000000000000000 ) ) ;
#214 =( NAMED_UNIT ( * ) PLANE_ANGLE_UNIT ( ) SI_UNIT ( $, .RADIAN. ) );
#215 = CC_DESIGN_PERSON_AND_ORGANIZATION_ASSIGNMENT ( #35, #15, ( #28 ) ) ;
#216 = MECHANICAL_CONTEXT ( 'NONE', #53, 'mechanical' ) ;
#217 = LOCAL_TIME ( 10, 21, 1.000000000000000000, #12 ) ;
#218 = CARTESIAN_POINT ( 'NONE',  ( 5.586370142149013368E-14, 0.0000000000000000000, 16.00000000000000000 ) ) ;
#219 = EDGE_CURVE ( 'NONE', #108, #108, #77, .T. ) ;
#220 = EDGE_LOOP ( 'NONE', ( #55 ) ) ;
#221 = ORIENTED_EDGE ( 'NONE', *, *, #199, .T. ) ;
#222 = DATE_AND_TIME ( #56, #217 ) ;
#223 = DIRECTION ( 'NONE',  ( 3.491481338843133355E-15, -0.0000000000000000000, 1.000000000000000000 ) ) ;
#224 = APPROVAL_STATUS ( 'not_yet_approved' ) ;
#225 = DIRECTION ( 'NONE',  ( -3.491481338843133355E-15, 1.224646799147353207E-16, -1.000000000000000000 ) ) ;
#226 = CIRCLE ( 'NONE', #187, 4.000000000000000000 ) ;
#227 = DIRECTION ( 'NONE',  ( -4.275831445896958607E-31, -1.000000000000000000, -1.224646799147353207E-16 ) ) ;
#228 = APPROVAL ( #169, 'UNSPECIFIED' ) ;
#229 = DIRECTION ( 'NONE',  ( -3.491481338843133355E-15, 1.224646799147353207E-16, -1.000000000000000000 ) ) ;
#230 = CLOSED_SHELL ( 'NONE', ( #189, #69, #183, #98 ) ) ;
#231 = AXIS2_PLACEMENT_3D ( 'NONE', #99, #79, #190 ) ;
#232 = DIRECTION ( 'NONE',  ( -3.491481338843133355E-15, 1.224646799147353207E-16, -1.000000000000000000 ) ) ;
#233 = UNCERTAINTY_MEASURE_WITH_UNIT (LENGTH_MEASURE( 1.000000000000000082E-05 ), #83, 'distance_accuracy_value', 'NONE');
#234 = CARTESIAN_POINT ( 'NONE',  ( 2.199633243471174140E-13, 3.499999999999992895, 63.00000000000000000 ) ) ;
#235 = APPROVAL_PERSON_ORGANIZATION ( #238, #86, #240 ) ;
#236 = ORIENTED_EDGE ( 'NONE', *, *, #34, .T. ) ;
#237 = EDGE_LOOP ( 'NONE', ( #160 ) ) ;
#238 = PERSON_AND_ORGANIZATION ( #70, #88 ) ;
#239 =( GEOMETRIC_REPRESENTATION_CONTEXT ( 3 ) GLOBAL_UNCERTAINTY_ASSIGNED_CONTEXT ( ( #233 ) ) GLOBAL_UNIT_ASSIGNED_CONTEXT ( ( #83, #214, #161 ) ) REPRESENTATION_CONTEXT ( 'NONE', 'WORKASPACE' ) );
#240 = APPROVAL_ROLE ( '' ) ;
#241 = DIRECTION ( 'NONE',  ( 0.0000000000000000000, 1.000000000000000000, 0.0000000000000000000 ) ) ;
#242 = APPROVAL_DATE_TIME ( #93, #49 ) ;
#243 = CARTESIAN_POINT ( 'NONE',  ( 6.982962677686254878E-16, -2.435834570415086612E-17, 0.1999999999999996503 ) ) ;
ENDSEC;
END-ISO-10303-21;
