ISO-10303-21;
HEADER;
FILE_DESCRIPTION (( 'STEP AP203' ),
    '1' );
FILE_NAME ('57020.step',
    '2021-11-17T09:21:01',
    ( '' ),
    ( '' ),
    'SwSTEP 2.0',
    'SolidWorks 2019',
    '' );
FILE_SCHEMA (( 'CONFIG_CONTROL_DESIGN' ));
ENDSEC;

DATA;
#1 = EDGE_CURVE ( 'NONE', #56, #56, #15, .T. ) ;
#2 = DATE_AND_TIME ( #22, #199 ) ;
#3 = APPROVAL_PERSON_ORGANIZATION ( #86, #18, #89 ) ;
#4 = ORIENTED_EDGE ( 'NONE', *, *, #53, .F. ) ;
#5 = COORDINATED_UNIVERSAL_TIME_OFFSET ( 1, 0, .AHEAD. ) ;
#6 = SECURITY_CLASSIFICATION_LEVEL ( 'unclassified' ) ;
#7 = EDGE_LOOP ( 'NONE', ( #209 ) ) ;
#8 = CARTESIAN_POINT ( 'NONE',  ( 4.538925740496073362E-14, 2.999519565323712479E-32, 13.00000000000000000 ) ) ;
#9 = AXIS2_PLACEMENT_3D ( 'NONE', #8, #64, #107 ) ;
#10 = FACE_OUTER_BOUND ( 'NONE', #115, .T. ) ;
#11 = DIRECTION ( 'NONE',  ( 1.000000000000000000, 0.0000000000000000000, -3.491481338843133355E-15 ) ) ;
#12 = DIRECTION ( 'NONE',  ( 0.0000000000000000000, 1.000000000000000000, 0.0000000000000000000 ) ) ;
#13 = FACE_OUTER_BOUND ( 'NONE', #243, .T. ) ;
#14 = COORDINATED_UNIVERSAL_TIME_OFFSET ( 1, 0, .AHEAD. ) ;
#15 = CIRCLE ( 'NONE', #180, 2.999999999999999112 ) ;
#16 = APPLICATION_PROTOCOL_DEFINITION ( 'international standard', 'config_control_design', 1994, #124 ) ;
#17 = MANIFOLD_SOLID_BREP ( 'Corps-Déplacer/Copier1[1]', #52 ) ;
#18 = APPROVAL ( #182, 'UNSPECIFIED' ) ;
#19 = CARTESIAN_POINT ( 'NONE',  ( -2.381307865191714518E-30, -2.799999999999998934, -6.820336797162252252E-16 ) ) ;
#20 = APPLICATION_CONTEXT ( 'configuration controlled 3d designs of mechanical parts and assemblies' ) ;
#21 = CIRCLE ( 'NONE', #30, 4.000000000000000000 ) ;
#22 = CALENDAR_DATE ( 2021, 17, 11 ) ;
#23 = CALENDAR_DATE ( 2021, 17, 11 ) ;
#24 = EDGE_LOOP ( 'NONE', ( #136 ) ) ;
#25 = APPROVAL_DATE_TIME ( #2, #233 ) ;
#26 = AXIS2_PLACEMENT_3D ( 'NONE', #213, #47, #122 ) ;
#27 = ADVANCED_FACE ( 'NONE', ( #28 ), #33, .F. ) ;
#28 = FACE_OUTER_BOUND ( 'NONE', #74, .T. ) ;
#29 = DIRECTION ( 'NONE',  ( 3.491481338843133355E-15, -0.0000000000000000000, 1.000000000000000000 ) ) ;
#30 = AXIS2_PLACEMENT_3D ( 'NONE', #236, #173, #192 ) ;
#31 = FACE_OUTER_BOUND ( 'NONE', #132, .T. ) ;
#32 = EDGE_CURVE ( 'NONE', #85, #85, #238, .T. ) ;
#33 = PLANE ( 'NONE',  #9 ) ;
#34 = DIRECTION ( 'NONE',  ( 3.491481338843133355E-15, -0.0000000000000000000, 1.000000000000000000 ) ) ;
#35 = PERSON_AND_ORGANIZATION_ROLE ( 'creator' ) ;
#36 = CARTESIAN_POINT ( 'NONE',  ( 6.982962677686245017E-16, -3.000000000000000000, 0.1999999999999993727 ) ) ;
#37 =( NAMED_UNIT ( * ) PLANE_ANGLE_UNIT ( ) SI_UNIT ( $, .RADIAN. ) );
#38 = PRODUCT ( '57020', '57020', '', ( #237 ) ) ;
#39 = AXIS2_PLACEMENT_3D ( 'NONE', #106, #67, #195 ) ;
#40 = DIRECTION ( 'NONE',  ( 1.000000000000000000, 0.0000000000000000000, 0.0000000000000000000 ) ) ;
#41 = CC_DESIGN_DATE_AND_TIME_ASSIGNMENT ( #208, #58, ( #130 ) ) ;
#42 = ORIENTED_EDGE ( 'NONE', *, *, #186, .F. ) ;
#43 = PERSON_AND_ORGANIZATION ( #189, #75 ) ;
#44 = ORIENTED_EDGE ( 'NONE', *, *, #186, .T. ) ;
#45 = DIRECTION ( 'NONE',  ( 1.000000000000000000, 0.0000000000000000000, -3.491481338843132961E-15 ) ) ;
#46 = FACE_OUTER_BOUND ( 'NONE', #187, .T. ) ;
#47 = DIRECTION ( 'NONE',  ( -3.491481338843133355E-15, 1.224646799147353207E-16, -1.000000000000000000 ) ) ;
#48 = CIRCLE ( 'NONE', #57, 2.799999999999998934 ) ;
#49 = DIRECTION ( 'NONE',  ( -4.172848212839010723E-31, -1.000000000000000000, -1.174552353525963055E-16 ) ) ;
#50 = CARTESIAN_POINT ( 'NONE',  ( 4.538925740496073362E-14, 2.999519565323712479E-32, 13.00000000000000000 ) ) ;
#51 = COORDINATED_UNIVERSAL_TIME_OFFSET ( 1, 0, .AHEAD. ) ;
#52 = CLOSED_SHELL ( 'NONE', ( #118, #104, #205, #59, #27 ) ) ;
#53 = EDGE_CURVE ( 'NONE', #128, #128, #114, .T. ) ;
#54 = VERTEX_POINT ( 'NONE', #223 ) ;
#55 = APPROVAL_PERSON_ORGANIZATION ( #101, #233, #95 ) ;
#56 = VERTEX_POINT ( 'NONE', #129 ) ;
#57 = AXIS2_PLACEMENT_3D ( 'NONE', #177, #84, #157 ) ;
#58 = DATE_TIME_ROLE ( 'classification_date' ) ;
#59 = ADVANCED_FACE ( 'NONE', ( #214, #126 ), #78, .F. ) ;
#60 = ORIENTED_EDGE ( 'NONE', *, *, #131, .F. ) ;
#61 = ORIENTED_EDGE ( 'NONE', *, *, #32, .F. ) ;
#62 = FACE_BOUND ( 'NONE', #168, .T. ) ;
#63 = PLANE ( 'NONE',  #26 ) ;
#64 = DIRECTION ( 'NONE',  ( 3.491481338843133355E-15, -1.224646799147353207E-16, 1.000000000000000000 ) ) ;
#65 = APPROVAL_PERSON_ORGANIZATION ( #219, #76, #145 ) ;
#66 = DIRECTION ( 'NONE',  ( 3.491481338843133355E-15, -1.217917285207545432E-16, 1.000000000000000000 ) ) ;
#67 = DIRECTION ( 'NONE',  ( -3.491481338843133355E-15, 1.224646799147353207E-16, -1.000000000000000000 ) ) ;
#68 = CALENDAR_DATE ( 2021, 17, 11 ) ;
#69 = PLANE ( 'NONE',  #232 ) ;
#70 = EDGE_CURVE ( 'NONE', #109, #109, #121, .T. ) ;
#71 = COORDINATED_UNIVERSAL_TIME_OFFSET ( 1, 0, .AHEAD. ) ;
#72 = VERTEX_POINT ( 'NONE', #110 ) ;
#73 = PERSON_AND_ORGANIZATION ( #189, #75 ) ;
#74 = EDGE_LOOP ( 'NONE', ( #4 ) ) ;
#75 = ORGANIZATION ( 'UNSPECIFIED', 'UNSPECIFIED', '' ) ;
#76 = APPROVAL ( #239, 'UNSPECIFIED' ) ;
#77 = ORIENTED_EDGE ( 'NONE', *, *, #1, .T. ) ;
#78 = TOROIDAL_SURFACE ( 'NONE', #218, 11.00000000000000000, 8.000000000000000000 ) ;
#79 = DIRECTION ( 'NONE',  ( 3.491481338843133355E-15, -1.217917285207545432E-16, 1.000000000000000000 ) ) ;
#80 = CARTESIAN_POINT ( 'NONE',  ( 4.538925740496072731E-14, 0.0000000000000000000, 12.99999999999999822 ) ) ;
#81 = CYLINDRICAL_SURFACE ( 'NONE', #90, 2.999999999999999556 ) ;
#82 = CARTESIAN_POINT ( 'NONE',  ( 0.0000000000000000000, 0.0000000000000000000, 0.0000000000000000000 ) ) ;
#83 = CC_DESIGN_SECURITY_CLASSIFICATION ( #130, ( #222 ) ) ;
#84 = DIRECTION ( 'NONE',  ( 3.491481338843133355E-15, -1.217917285207545432E-16, 1.000000000000000000 ) ) ;
#85 = VERTEX_POINT ( 'NONE', #36 ) ;
#86 = PERSON_AND_ORGANIZATION ( #189, #75 ) ;
#87 = AXIS2_PLACEMENT_3D ( 'NONE', #140, #137, #102 ) ;
#88 = CC_DESIGN_PERSON_AND_ORGANIZATION_ASSIGNMENT ( #43, #148, ( #222 ) ) ;
#89 = APPROVAL_ROLE ( '' ) ;
#90 = AXIS2_PLACEMENT_3D ( 'NONE', #229, #175, #11 ) ;
#91 = CC_DESIGN_PERSON_AND_ORGANIZATION_ASSIGNMENT ( #183, #99, ( #130 ) ) ;
#92 = PERSON_AND_ORGANIZATION_ROLE ( 'design_supplier' ) ;
#93 = MANIFOLD_SOLID_BREP ( 'Corps-Déplacer/Copier1[2]', #207 ) ;
#94 = ORIENTED_EDGE ( 'NONE', *, *, #1, .F. ) ;
#95 = APPROVAL_ROLE ( '' ) ;
#96 = EDGE_LOOP ( 'NONE', ( #224 ) ) ;
#97 = ADVANCED_FACE ( 'NONE', ( #117, #31 ), #81, .T. ) ;
#98 = CC_DESIGN_APPROVAL ( #76, ( #222 ) ) ;
#99 = PERSON_AND_ORGANIZATION_ROLE ( 'classification_officer' ) ;
#100 = EDGE_LOOP ( 'NONE', ( #206 ) ) ;
#101 = PERSON_AND_ORGANIZATION ( #189, #75 ) ;
#102 = DIRECTION ( 'NONE',  ( 1.000000000000000000, 0.0000000000000000000, -3.469446951953615372E-15 ) ) ;
#103 = CONICAL_SURFACE ( 'NONE', #150, 3.000000000000000000, 0.7853981633974504994 ) ;
#104 = ADVANCED_FACE ( 'NONE', ( #62, #197 ), #144, .T. ) ;
#105 = DIRECTION ( 'NONE',  ( -4.275831445896958607E-31, -1.000000000000000000, -1.224646799147353207E-16 ) ) ;
#106 = CARTESIAN_POINT ( 'NONE',  ( 2.182175836776958284E-13, -7.654042494670957804E-15, 62.50000000000000000 ) ) ;
#107 = DIRECTION ( 'NONE',  ( -4.275831445896958607E-31, -1.000000000000000000, -1.224646799147353207E-16 ) ) ;
#108 = DIRECTION ( 'NONE',  ( 3.491481338843133355E-15, -1.224646799147353207E-16, 1.000000000000000000 ) ) ;
#109 = VERTEX_POINT ( 'NONE', #201 ) ;
#110 = CARTESIAN_POINT ( 'NONE',  ( 2.199633243471174140E-13, 3.499999999999992895, 63.00000000000000000 ) ) ;
#111 = AXIS2_PLACEMENT_3D ( 'NONE', #181, #203, #40 ) ;
#112 =( NAMED_UNIT ( * ) SI_UNIT ( $, .STERADIAN. ) SOLID_ANGLE_UNIT ( ) );
#113 = CC_DESIGN_DATE_AND_TIME_ASSIGNMENT ( #240, #143, ( #198 ) ) ;
#114 = CIRCLE ( 'NONE', #87, 2.999999999999999112 ) ;
#115 = EDGE_LOOP ( 'NONE', ( #60 ) ) ;
#116 = COORDINATED_UNIVERSAL_TIME_OFFSET ( 1, 0, .AHEAD. ) ;
#117 = FACE_OUTER_BOUND ( 'NONE', #188, .T. ) ;
#118 = ADVANCED_FACE ( 'NONE', ( #212, #13 ), #123, .T. ) ;
#119 = ADVANCED_BREP_SHAPE_REPRESENTATION ( '57020', ( #17, #93, #111 ), #194 ) ;
#120 = CARTESIAN_POINT ( 'NONE',  ( 2.199633243471174140E-13, -7.715274834628325378E-15, 63.00000000000000000 ) ) ;
#121 = CIRCLE ( 'NONE', #39, 4.000000000000000888 ) ;
#122 = DIRECTION ( 'NONE',  ( 4.275831445896958607E-31, 1.000000000000000000, 1.224646799147353207E-16 ) ) ;
#123 = CYLINDRICAL_SURFACE ( 'NONE', #172, 4.000000000000000000 ) ;
#124 = APPLICATION_CONTEXT ( 'configuration controlled 3d designs of mechanical parts and assemblies' ) ;
#125 = ADVANCED_FACE ( 'NONE', ( #156, #46 ), #103, .T. ) ;
#126 = FACE_OUTER_BOUND ( 'NONE', #24, .T. ) ;
#127 = DATE_AND_TIME ( #68, #139 ) ;
#128 = VERTEX_POINT ( 'NONE', #163 ) ;
#129 = CARTESIAN_POINT ( 'NONE',  ( 3.000000000000044853, 0.0000000000000000000, 12.99999999999998757 ) ) ;
#130 = SECURITY_CLASSIFICATION ( '', '', #6 ) ;
#131 = EDGE_CURVE ( 'NONE', #72, #72, #135, .T. ) ;
#132 = EDGE_LOOP ( 'NONE', ( #225 ) ) ;
#133 = AXIS2_PLACEMENT_3D ( 'NONE', #154, #176, #12 ) ;
#134 = CC_DESIGN_PERSON_AND_ORGANIZATION_ASSIGNMENT ( #200, #35, ( #198 ) ) ;
#135 = CIRCLE ( 'NONE', #160, 3.500000000000000444 ) ;
#136 = ORIENTED_EDGE ( 'NONE', *, *, #53, .T. ) ;
#137 = DIRECTION ( 'NONE',  ( 3.491481338843133355E-15, -0.0000000000000000000, 1.000000000000000000 ) ) ;
#138 = DIRECTION ( 'NONE',  ( 4.275831445896958607E-31, 1.000000000000000000, 1.224646799147353207E-16 ) ) ;
#139 = LOCAL_TIME ( 10, 21, 1.000000000000000000, #51 ) ;
#140 = CARTESIAN_POINT ( 'NONE',  ( 4.538925740496072731E-14, 0.0000000000000000000, 12.99999999999999822 ) ) ;
#141 = DESIGN_CONTEXT ( 'detailed design', #124, 'design' ) ;
#142 = CARTESIAN_POINT ( 'NONE',  ( 6.982962677686257836E-16, -2.435834570415087537E-17, 0.1999999999999997335 ) ) ;
#143 = DATE_TIME_ROLE ( 'creation_date' ) ;
#144 = CONICAL_SURFACE ( 'NONE', #133, 4.000000000000000888, 0.7853981633974482790 ) ;
#145 = APPROVAL_ROLE ( '' ) ;
#146 = CALENDAR_DATE ( 2021, 17, 11 ) ;
#147 = DIRECTION ( 'NONE',  ( -3.491481338843133355E-15, 1.224646799147353207E-16, -1.000000000000000000 ) ) ;
#148 = PERSON_AND_ORGANIZATION_ROLE ( 'creator' ) ;
#149 = EDGE_LOOP ( 'NONE', ( #77 ) ) ;
#150 = AXIS2_PLACEMENT_3D ( 'NONE', #230, #66, #49 ) ;
#151 = ORIENTED_EDGE ( 'NONE', *, *, #178, .T. ) ;
#152 = CARTESIAN_POINT ( 'NONE',  ( 4.538925740496073362E-14, 0.0000000000000000000, 13.00000000000000000 ) ) ;
#153 = FACE_OUTER_BOUND ( 'NONE', #149, .T. ) ;
#154 = CARTESIAN_POINT ( 'NONE',  ( 2.182175836776958284E-13, -7.654042494670957804E-15, 62.50000000000000000 ) ) ;
#155 = LOCAL_TIME ( 10, 21, 1.000000000000000000, #5 ) ;
#156 = FACE_BOUND ( 'NONE', #164, .T. ) ;
#157 = DIRECTION ( 'NONE',  ( -4.252335473556634068E-31, -1.000000000000000000, -1.217917285207545432E-16 ) ) ;
#158 = FACE_OUTER_BOUND ( 'NONE', #96, .T. ) ;
#159 = CALENDAR_DATE ( 2021, 17, 11 ) ;
#160 = AXIS2_PLACEMENT_3D ( 'NONE', #120, #235, #196 ) ;
#161 = APPROVAL_DATE_TIME ( #127, #18 ) ;
#162 = APPLICATION_PROTOCOL_DEFINITION ( 'international standard', 'config_control_design', 1994, #20 ) ;
#163 = CARTESIAN_POINT ( 'NONE',  ( 3.000000000000044853, 0.0000000000000000000, 12.99999999999998757 ) ) ;
#164 = EDGE_LOOP ( 'NONE', ( #151 ) ) ;
#165 = APPROVAL_STATUS ( 'not_yet_approved' ) ;
#166 = LOCAL_TIME ( 10, 21, 1.000000000000000000, #14 ) ;
#167 = DATE_AND_TIME ( #146, #202 ) ;
#168 = EDGE_LOOP ( 'NONE', ( #170 ) ) ;
#169 = PRODUCT_RELATED_PRODUCT_CATEGORY ( 'detail', '', ( #38 ) ) ;
#170 = ORIENTED_EDGE ( 'NONE', *, *, #131, .T. ) ;
#171 = DIRECTION ( 'NONE',  ( 1.000000000000000000, 0.0000000000000000000, -3.469446951953615372E-15 ) ) ;
#172 = AXIS2_PLACEMENT_3D ( 'NONE', #82, #231, #138 ) ;
#173 = DIRECTION ( 'NONE',  ( 3.491481338843133355E-15, -0.0000000000000000000, 1.000000000000000000 ) ) ;
#174 = ADVANCED_FACE ( 'NONE', ( #153 ), #193, .T. ) ;
#175 = DIRECTION ( 'NONE',  ( 3.491481338843133355E-15, -0.0000000000000000000, 1.000000000000000000 ) ) ;
#176 = DIRECTION ( 'NONE',  ( -3.491481338843133355E-15, 1.224646799147353207E-16, -1.000000000000000000 ) ) ;
#177 = CARTESIAN_POINT ( 'NONE',  ( -1.190653932595857434E-30, 4.153303038100488083E-32, -3.410168398581126126E-16 ) ) ;
#178 = EDGE_CURVE ( 'NONE', #217, #217, #48, .T. ) ;
#179 = PERSON_AND_ORGANIZATION_ROLE ( 'design_owner' ) ;
#180 = AXIS2_PLACEMENT_3D ( 'NONE', #80, #29, #171 ) ;
#181 = CARTESIAN_POINT ( 'NONE',  ( 0.0000000000000000000, 0.0000000000000000000, 0.0000000000000000000 ) ) ;
#182 = APPROVAL_STATUS ( 'not_yet_approved' ) ;
#183 = PERSON_AND_ORGANIZATION ( #189, #75 ) ;
#184 = AXIS2_PLACEMENT_3D ( 'NONE', #142, #79, #216 ) ;
#185 = PERSON_AND_ORGANIZATION ( #189, #75 ) ;
#186 = EDGE_CURVE ( 'NONE', #54, #54, #21, .T. ) ;
#187 = EDGE_LOOP ( 'NONE', ( #61 ) ) ;
#188 = EDGE_LOOP ( 'NONE', ( #94 ) ) ;
#189 = PERSON ( 'UNSPECIFIED', 'UNSPECIFIED', 'UNSPECIFIED', ('UNSPECIFIED'), ('UNSPECIFIED'), ('UNSPECIFIED') ) ;
#190 = APPROVAL_DATE_TIME ( #167, #76 ) ;
#191 = CC_DESIGN_APPROVAL ( #233, ( #130 ) ) ;
#192 = DIRECTION ( 'NONE',  ( -1.000000000000000000, 0.0000000000000000000, 3.469446951953614189E-15 ) ) ;
#193 = PLANE ( 'NONE',  #241 ) ;
#194 =( GEOMETRIC_REPRESENTATION_CONTEXT ( 3 ) GLOBAL_UNCERTAINTY_ASSIGNED_CONTEXT ( ( #234 ) ) GLOBAL_UNIT_ASSIGNED_CONTEXT ( ( #204, #37, #112 ) ) REPRESENTATION_CONTEXT ( 'NONE', 'WORKASPACE' ) );
#195 = DIRECTION ( 'NONE',  ( 0.0000000000000000000, 1.000000000000000000, 0.0000000000000000000 ) ) ;
#196 = DIRECTION ( 'NONE',  ( 0.0000000000000000000, 1.000000000000000000, 0.0000000000000000000 ) ) ;
#197 = FACE_OUTER_BOUND ( 'NONE', #100, .T. ) ;
#198 = PRODUCT_DEFINITION ( 'UNKNOWN', '', #222, #141 ) ;
#199 = LOCAL_TIME ( 10, 21, 1.000000000000000000, #116 ) ;
#200 = PERSON_AND_ORGANIZATION ( #189, #75 ) ;
#201 = CARTESIAN_POINT ( 'NONE',  ( 2.182175836776958284E-13, 3.999999999999993339, 62.50000000000000000 ) ) ;
#202 = LOCAL_TIME ( 10, 21, 1.000000000000000000, #71 ) ;
#203 = DIRECTION ( 'NONE',  ( 0.0000000000000000000, 0.0000000000000000000, 1.000000000000000000 ) ) ;
#204 =( LENGTH_UNIT ( ) NAMED_UNIT ( * ) SI_UNIT ( .MILLI., .METRE. ) );
#205 = ADVANCED_FACE ( 'NONE', ( #10 ), #63, .F. ) ;
#206 = ORIENTED_EDGE ( 'NONE', *, *, #70, .F. ) ;
#207 = CLOSED_SHELL ( 'NONE', ( #97, #174, #125, #210 ) ) ;
#208 = DATE_AND_TIME ( #23, #155 ) ;
#209 = ORIENTED_EDGE ( 'NONE', *, *, #70, .T. ) ;
#210 = ADVANCED_FACE ( 'NONE', ( #158 ), #69, .T. ) ;
#211 = SHAPE_DEFINITION_REPRESENTATION ( #215, #119 ) ;
#212 = FACE_OUTER_BOUND ( 'NONE', #7, .T. ) ;
#213 = CARTESIAN_POINT ( 'NONE',  ( 2.199633243471174140E-13, 2.624579619658239319E-32, 63.00000000000000000 ) ) ;
#214 = FACE_OUTER_BOUND ( 'NONE', #227, .T. ) ;
#215 = PRODUCT_DEFINITION_SHAPE ( 'NONE', 'NONE',  #198 ) ;
#216 = DIRECTION ( 'NONE',  ( -4.172848212839010723E-31, -1.000000000000000000, -1.174552353525963055E-16 ) ) ;
#217 = VERTEX_POINT ( 'NONE', #19 ) ;
#218 = AXIS2_PLACEMENT_3D ( 'NONE', #152, #34, #45 ) ;
#219 = PERSON_AND_ORGANIZATION ( #189, #75 ) ;
#220 = CARTESIAN_POINT ( 'NONE',  ( -8.551662891793915461E-31, 2.999519565323715216E-32, -2.449293598294706414E-16 ) ) ;
#221 = DIRECTION ( 'NONE',  ( 4.275831445896958607E-31, 1.000000000000000000, 1.224646799147353207E-16 ) ) ;
#222 = PRODUCT_DEFINITION_FORMATION_WITH_SPECIFIED_SOURCE ( 'ANY', '', #38, .NOT_KNOWN. ) ;
#223 = CARTESIAN_POINT ( 'NONE',  ( -3.999999999999940936, 0.0000000000000000000, 16.87298334620743034 ) ) ;
#224 = ORIENTED_EDGE ( 'NONE', *, *, #178, .F. ) ;
#225 = ORIENTED_EDGE ( 'NONE', *, *, #32, .T. ) ;
#226 = CC_DESIGN_PERSON_AND_ORGANIZATION_ASSIGNMENT ( #185, #92, ( #222 ) ) ;
#227 = EDGE_LOOP ( 'NONE', ( #42 ) ) ;
#228 = CC_DESIGN_APPROVAL ( #18, ( #198 ) ) ;
#229 = CARTESIAN_POINT ( 'NONE',  ( -6.413747168845438786E-31, 0.0000000000000000000, -1.836970198721029934E-16 ) ) ;
#230 = CARTESIAN_POINT ( 'NONE',  ( 6.982962677686257836E-16, -2.435834570415087537E-17, 0.1999999999999997335 ) ) ;
#231 = DIRECTION ( 'NONE',  ( -3.491481338843133355E-15, 1.224646799147353207E-16, -1.000000000000000000 ) ) ;
#232 = AXIS2_PLACEMENT_3D ( 'NONE', #220, #147, #221 ) ;
#233 = APPROVAL ( #165, 'UNSPECIFIED' ) ;
#234 = UNCERTAINTY_MEASURE_WITH_UNIT (LENGTH_MEASURE( 1.000000000000000082E-05 ), #204, 'distance_accuracy_value', 'NONE');
#235 = DIRECTION ( 'NONE',  ( -3.491481338843133355E-15, 1.224646799147353207E-16, -1.000000000000000000 ) ) ;
#236 = CARTESIAN_POINT ( 'NONE',  ( 5.891170648389416491E-14, 0.0000000000000000000, 16.87298334620741969 ) ) ;
#237 = MECHANICAL_CONTEXT ( 'NONE', #20, 'mechanical' ) ;
#238 = CIRCLE ( 'NONE', #184, 3.000000000000000000 ) ;
#239 = APPROVAL_STATUS ( 'not_yet_approved' ) ;
#240 = DATE_AND_TIME ( #159, #166 ) ;
#241 = AXIS2_PLACEMENT_3D ( 'NONE', #50, #108, #105 ) ;
#242 = CC_DESIGN_PERSON_AND_ORGANIZATION_ASSIGNMENT ( #73, #179, ( #38 ) ) ;
#243 = EDGE_LOOP ( 'NONE', ( #44 ) ) ;
ENDSEC;
END-ISO-10303-21;
