ISO-10303-21;
HEADER;
FILE_DESCRIPTION (( 'STEP AP203' ),
    '1' );
FILE_NAME ('57019.step',
    '2021-11-17T09:21:00',
    ( '' ),
    ( '' ),
    'SwSTEP 2.0',
    'SolidWorks 2019',
    '' );
FILE_SCHEMA (( 'CONFIG_CONTROL_DESIGN' ));
ENDSEC;

DATA;
#1 = LOCAL_TIME ( 10, 21, 0.0000000000000000000, #203 ) ;
#2 = PERSON_AND_ORGANIZATION_ROLE ( 'creator' ) ;
#3 = DIRECTION ( 'NONE',  ( 0.0000000000000000000, 0.0000000000000000000, 1.000000000000000000 ) ) ;
#4 = CARTESIAN_POINT ( 'NONE',  ( 4.538925740496072731E-14, 0.0000000000000000000, 12.99999999999999822 ) ) ;
#5 = AXIS2_PLACEMENT_3D ( 'NONE', #139, #109, #188 ) ;
#6 = APPROVAL_DATE_TIME ( #212, #46 ) ;
#7 = DATE_AND_TIME ( #170, #140 ) ;
#8 = EDGE_LOOP ( 'NONE', ( #190 ) ) ;
#9 = ADVANCED_FACE ( 'NONE', ( #162 ), #182, .T. ) ;
#10 = FACE_OUTER_BOUND ( 'NONE', #85, .T. ) ;
#11 = DIRECTION ( 'NONE',  ( 3.491481338843133355E-15, -0.0000000000000000000, 1.000000000000000000 ) ) ;
#12 = SECURITY_CLASSIFICATION ( '', '', #152 ) ;
#13 = FACE_OUTER_BOUND ( 'NONE', #115, .T. ) ;
#14 = CYLINDRICAL_SURFACE ( 'NONE', #179, 3.000000000000000000 ) ;
#15 = DIRECTION ( 'NONE',  ( -3.491481338843133355E-15, 1.224646799147353207E-16, -1.000000000000000000 ) ) ;
#16 = EDGE_CURVE ( 'NONE', #58, #58, #131, .T. ) ;
#17 = VERTEX_POINT ( 'NONE', #221 ) ;
#18 = CARTESIAN_POINT ( 'NONE',  ( 0.0000000000000000000, 0.0000000000000000000, 0.0000000000000000000 ) ) ;
#19 = APPROVAL_DATE_TIME ( #40, #127 ) ;
#20 = AXIS2_PLACEMENT_3D ( 'NONE', #200, #11, #239 ) ;
#21 = VERTEX_POINT ( 'NONE', #56 ) ;
#22 = CC_DESIGN_DATE_AND_TIME_ASSIGNMENT ( #7, #191, ( #12 ) ) ;
#23 = CONICAL_SURFACE ( 'NONE', #198, 2.999999999999999556, 0.7853981633974405074 ) ;
#24 = CALENDAR_DATE ( 2021, 17, 11 ) ;
#25 = EDGE_LOOP ( 'NONE', ( #227 ) ) ;
#26 = APPROVAL_PERSON_ORGANIZATION ( #124, #127, #243 ) ;
#27 = EDGE_CURVE ( 'NONE', #17, #17, #210, .T. ) ;
#28 = ORIENTED_EDGE ( 'NONE', *, *, #27, .T. ) ;
#29 = CARTESIAN_POINT ( 'NONE',  ( 6.982962677686259808E-16, -2.435834570415088461E-17, 0.1999999999999997891 ) ) ;
#30 = FACE_OUTER_BOUND ( 'NONE', #213, .T. ) ;
#31 = APPROVAL_PERSON_ORGANIZATION ( #223, #189, #97 ) ;
#32 = FACE_BOUND ( 'NONE', #154, .T. ) ;
#33 = DIRECTION ( 'NONE',  ( -4.237045877651918877E-31, -1.000000000000000000, -1.192622389734054877E-16 ) ) ;
#34 = FACE_OUTER_BOUND ( 'NONE', #65, .T. ) ;
#35 = LOCAL_TIME ( 10, 21, 0.0000000000000000000, #96 ) ;
#36 = PERSON_AND_ORGANIZATION ( #229, #128 ) ;
#37 = DIRECTION ( 'NONE',  ( 3.491481338843133355E-15, -0.0000000000000000000, 1.000000000000000000 ) ) ;
#38 = ADVANCED_FACE ( 'NONE', ( #30 ), #45, .F. ) ;
#39 = CC_DESIGN_APPROVAL ( #46, ( #12 ) ) ;
#40 = DATE_AND_TIME ( #185, #1 ) ;
#41 = PERSON_AND_ORGANIZATION ( #229, #128 ) ;
#42 = ORIENTED_EDGE ( 'NONE', *, *, #92, .T. ) ;
#43 = CC_DESIGN_PERSON_AND_ORGANIZATION_ASSIGNMENT ( #64, #156, ( #114 ) ) ;
#44 = AXIS2_PLACEMENT_3D ( 'NONE', #68, #72, #216 ) ;
#45 = PLANE ( 'NONE',  #163 ) ;
#46 = APPROVAL ( #175, 'UNSPECIFIED' ) ;
#47 = DIRECTION ( 'NONE',  ( 3.491481338843133355E-15, -1.217917285207545432E-16, 1.000000000000000000 ) ) ;
#48 = FACE_OUTER_BOUND ( 'NONE', #8, .T. ) ;
#49 = CIRCLE ( 'NONE', #102, 2.499999999999996891 ) ;
#50 = DIRECTION ( 'NONE',  ( 3.491481338843133355E-15, -1.224646799147353207E-16, 1.000000000000000000 ) ) ;
#51 = DIRECTION ( 'NONE',  ( -4.275831445896958607E-31, -1.000000000000000000, -1.224646799147353207E-16 ) ) ;
#52 = EDGE_CURVE ( 'NONE', #21, #21, #183, .T. ) ;
#53 = DIRECTION ( 'NONE',  ( -3.491481338843133355E-15, 1.224646799147353207E-16, -1.000000000000000000 ) ) ;
#54 = CIRCLE ( 'NONE', #187, 2.999999999999999556 ) ;
#55 = CIRCLE ( 'NONE', #5, 2.500000000000000000 ) ;
#56 = CARTESIAN_POINT ( 'NONE',  ( -2.999999999999944933, 0.0000000000000000000, 15.78388218141502364 ) ) ;
#57 = CC_DESIGN_PERSON_AND_ORGANIZATION_ASSIGNMENT ( #94, #228, ( #12 ) ) ;
#58 = VERTEX_POINT ( 'NONE', #90 ) ;
#59 = CARTESIAN_POINT ( 'NONE',  ( 1.972686956446370283E-13, 2.999999999999992895, 56.49999999999999289 ) ) ;
#60 = CARTESIAN_POINT ( 'NONE',  ( 1.990144363140586139E-13, 2.499999999999992895, 57.00000000000000000 ) ) ;
#61 = AXIS2_PLACEMENT_3D ( 'NONE', #81, #50, #196 ) ;
#62 = APPROVAL_DATE_TIME ( #133, #189 ) ;
#63 = APPROVAL_ROLE ( '' ) ;
#64 = PERSON_AND_ORGANIZATION ( #229, #128 ) ;
#65 = EDGE_LOOP ( 'NONE', ( #230 ) ) ;
#66 = CARTESIAN_POINT ( 'NONE',  ( 4.538925740496073362E-14, 0.0000000000000000000, 13.00000000000000000 ) ) ;
#67 = DIRECTION ( 'NONE',  ( 4.275831445896958607E-31, 1.000000000000000000, 1.224646799147353207E-16 ) ) ;
#68 = CARTESIAN_POINT ( 'NONE',  ( 5.510913009090916710E-14, 0.0000000000000000000, 15.78388218141501476 ) ) ;
#69 = DIRECTION ( 'NONE',  ( -4.252335473556634944E-31, -1.000000000000000000, -1.217917285207545432E-16 ) ) ;
#70 = CC_DESIGN_SECURITY_CLASSIFICATION ( #12, ( #114 ) ) ;
#71 = ADVANCED_FACE ( 'NONE', ( #101, #48 ), #14, .T. ) ;
#72 = DIRECTION ( 'NONE',  ( 3.491481338843133355E-15, -0.0000000000000000000, 1.000000000000000000 ) ) ;
#73 = CARTESIAN_POINT ( 'NONE',  ( 6.982962677686248961E-16, -2.500000000000000000, 0.1999999999999994837 ) ) ;
#74 = AXIS2_PLACEMENT_3D ( 'NONE', #120, #238, #67 ) ;
#75 =( NAMED_UNIT ( * ) PLANE_ANGLE_UNIT ( ) SI_UNIT ( $, .RADIAN. ) );
#76 = CIRCLE ( 'NONE', #119, 2.500000000000000000 ) ;
#77 = ORIENTED_EDGE ( 'NONE', *, *, #206, .F. ) ;
#78 = PERSON_AND_ORGANIZATION ( #229, #128 ) ;
#79 = EDGE_LOOP ( 'NONE', ( #158 ) ) ;
#80 = PRODUCT_RELATED_PRODUCT_CATEGORY ( 'detail', '', ( #171 ) ) ;
#81 = CARTESIAN_POINT ( 'NONE',  ( 4.538925740496073362E-14, 2.249639673992783675E-32, 13.00000000000000000 ) ) ;
#82 = CC_DESIGN_APPROVAL ( #127, ( #202 ) ) ;
#83 = DIRECTION ( 'NONE',  ( 4.275831445896959482E-31, 1.000000000000000000, 1.224646799147353207E-16 ) ) ;
#84 = DIRECTION ( 'NONE',  ( -3.491481338843133355E-15, 1.224646799147353207E-16, -1.000000000000000000 ) ) ;
#85 = EDGE_LOOP ( 'NONE', ( #193 ) ) ;
#86 = CC_DESIGN_PERSON_AND_ORGANIZATION_ASSIGNMENT ( #41, #233, ( #114 ) ) ;
#87 = FACE_OUTER_BOUND ( 'NONE', #226, .T. ) ;
#88 = DIRECTION ( 'NONE',  ( 0.0000000000000000000, 1.000000000000000000, 0.0000000000000000000 ) ) ;
#89 = APPLICATION_PROTOCOL_DEFINITION ( 'international standard', 'config_control_design', 1994, #176 ) ;
#90 = CARTESIAN_POINT ( 'NONE',  ( 2.500000000000042633, 0.0000000000000000000, 12.99999999999998934 ) ) ;
#91 = DATE_TIME_ROLE ( 'creation_date' ) ;
#92 = EDGE_CURVE ( 'NONE', #224, #224, #76, .T. ) ;
#93 = APPLICATION_CONTEXT ( 'configuration controlled 3d designs of mechanical parts and assemblies' ) ;
#94 = PERSON_AND_ORGANIZATION ( #229, #128 ) ;
#95 = CLOSED_SHELL ( 'NONE', ( #146, #9, #165, #192 ) ) ;
#96 = COORDINATED_UNIVERSAL_TIME_OFFSET ( 1, 0, .AHEAD. ) ;
#97 = APPROVAL_ROLE ( '' ) ;
#98 = EDGE_LOOP ( 'NONE', ( #77 ) ) ;
#99 = CALENDAR_DATE ( 2021, 17, 11 ) ;
#100 = ADVANCED_FACE ( 'NONE', ( #197 ), #141, .F. ) ;
#101 = FACE_OUTER_BOUND ( 'NONE', #113, .T. ) ;
#102 = AXIS2_PLACEMENT_3D ( 'NONE', #4, #37, #125 ) ;
#103 = CYLINDRICAL_SURFACE ( 'NONE', #155, 2.499999999999998224 ) ;
#104 = DIRECTION ( 'NONE',  ( 3.491481338843133355E-15, -0.0000000000000000000, 1.000000000000000000 ) ) ;
#105 = CC_DESIGN_PERSON_AND_ORGANIZATION_ASSIGNMENT ( #168, #2, ( #202 ) ) ;
#106 = CARTESIAN_POINT ( 'NONE',  ( -9.780371589180255992E-31, 3.411641781296828872E-32, -2.801209755977353163E-16 ) ) ;
#107 = CONICAL_SURFACE ( 'NONE', #173, 2.500000000000000000, 0.7853981633974504994 ) ;
#108 = DIRECTION ( 'NONE',  ( 1.000000000000000000, 0.0000000000000000000, 0.0000000000000000000 ) ) ;
#109 = DIRECTION ( 'NONE',  ( 3.491481338843133355E-15, -1.217917285207545432E-16, 1.000000000000000000 ) ) ;
#110 =( NAMED_UNIT ( * ) SI_UNIT ( $, .STERADIAN. ) SOLID_ANGLE_UNIT ( ) );
#111 = CC_DESIGN_APPROVAL ( #189, ( #114 ) ) ;
#112 = ADVANCED_FACE ( 'NONE', ( #32, #34 ), #23, .T. ) ;
#113 = EDGE_LOOP ( 'NONE', ( #135 ) ) ;
#114 = PRODUCT_DEFINITION_FORMATION_WITH_SPECIFIED_SOURCE ( 'ANY', '', #171, .NOT_KNOWN. ) ;
#115 = EDGE_LOOP ( 'NONE', ( #172 ) ) ;
#116 = EDGE_LOOP ( 'NONE', ( #28 ) ) ;
#117 = CARTESIAN_POINT ( 'NONE',  ( 1.990144363140586139E-13, -6.980486755139912911E-15, 57.00000000000000000 ) ) ;
#118 = DIRECTION ( 'NONE',  ( 0.0000000000000000000, 1.000000000000000000, 0.0000000000000000000 ) ) ;
#119 = AXIS2_PLACEMENT_3D ( 'NONE', #117, #84, #217 ) ;
#120 = CARTESIAN_POINT ( 'NONE',  ( -6.413747168845438786E-31, 2.249639673992786412E-32, -1.836970198721029934E-16 ) ) ;
#121 = FACE_OUTER_BOUND ( 'NONE', #25, .T. ) ;
#122 = DIRECTION ( 'NONE',  ( 1.000000000000000000, 0.0000000000000000000, -3.491481338843133355E-15 ) ) ;
#123 = AXIS2_PLACEMENT_3D ( 'NONE', #199, #215, #51 ) ;
#124 = PERSON_AND_ORGANIZATION ( #229, #128 ) ;
#125 = DIRECTION ( 'NONE',  ( 1.000000000000000000, 0.0000000000000000000, -3.469446951953618528E-15 ) ) ;
#126 = VERTEX_POINT ( 'NONE', #59 ) ;
#127 = APPROVAL ( #167, 'UNSPECIFIED' ) ;
#128 = ORGANIZATION ( 'UNSPECIFIED', 'UNSPECIFIED', '' ) ;
#129 =( LENGTH_UNIT ( ) NAMED_UNIT ( * ) SI_UNIT ( .MILLI., .METRE. ) );
#130 = ORIENTED_EDGE ( 'NONE', *, *, #92, .F. ) ;
#131 = CIRCLE ( 'NONE', #20, 2.499999999999996891 ) ;
#132 = UNCERTAINTY_MEASURE_WITH_UNIT (LENGTH_MEASURE( 1.000000000000000082E-05 ), #129, 'distance_accuracy_value', 'NONE');
#133 = DATE_AND_TIME ( #24, #194 ) ;
#134 = COORDINATED_UNIVERSAL_TIME_OFFSET ( 1, 0, .AHEAD. ) ;
#135 = ORIENTED_EDGE ( 'NONE', *, *, #225, .T. ) ;
#136 = CC_DESIGN_PERSON_AND_ORGANIZATION_ASSIGNMENT ( #36, #166, ( #171 ) ) ;
#137 = APPROVAL_PERSON_ORGANIZATION ( #78, #46, #63 ) ;
#138 = DIRECTION ( 'NONE',  ( 3.491481338843133355E-15, -0.0000000000000000000, 1.000000000000000000 ) ) ;
#139 = CARTESIAN_POINT ( 'NONE',  ( 6.982962677686259808E-16, -2.435834570415088461E-17, 0.1999999999999997891 ) ) ;
#140 = LOCAL_TIME ( 10, 21, 0.0000000000000000000, #134 ) ;
#141 = PLANE ( 'NONE',  #61 ) ;
#142 = CARTESIAN_POINT ( 'NONE',  ( 1.972686956446370283E-13, -6.919254415182544548E-15, 56.49999999999999289 ) ) ;
#143 = APPLICATION_PROTOCOL_DEFINITION ( 'international standard', 'config_control_design', 1994, #93 ) ;
#144 = TOROIDAL_SURFACE ( 'NONE', #159, 10.49999999999999822, 8.000000000000000000 ) ;
#145 = VERTEX_POINT ( 'NONE', #147 ) ;
#146 = ADVANCED_FACE ( 'NONE', ( #10, #121 ), #103, .T. ) ;
#147 = CARTESIAN_POINT ( 'NONE',  ( 2.500000000000042633, 0.0000000000000000000, 12.99999999999998934 ) ) ;
#148 = CLOSED_SHELL ( 'NONE', ( #71, #112, #38, #174, #100 ) ) ;
#149 = MANIFOLD_SOLID_BREP ( 'Corps-Déplacer/Copier1[1]', #148 ) ;
#150 = ORIENTED_EDGE ( 'NONE', *, *, #52, .F. ) ;
#151 = EDGE_LOOP ( 'NONE', ( #157 ) ) ;
#152 = SECURITY_CLASSIFICATION_LEVEL ( 'unclassified' ) ;
#153 = PRODUCT_DEFINITION_SHAPE ( 'NONE', 'NONE',  #202 ) ;
#154 = EDGE_LOOP ( 'NONE', ( #42 ) ) ;
#155 = AXIS2_PLACEMENT_3D ( 'NONE', #218, #104, #122 ) ;
#156 = PERSON_AND_ORGANIZATION_ROLE ( 'design_supplier' ) ;
#157 = ORIENTED_EDGE ( 'NONE', *, *, #16, .T. ) ;
#158 = ORIENTED_EDGE ( 'NONE', *, *, #27, .F. ) ;
#159 = AXIS2_PLACEMENT_3D ( 'NONE', #66, #138, #214 ) ;
#160 = PLANE ( 'NONE',  #74 ) ;
#161 = FACE_OUTER_BOUND ( 'NONE', #79, .T. ) ;
#162 = FACE_OUTER_BOUND ( 'NONE', #151, .T. ) ;
#163 = AXIS2_PLACEMENT_3D ( 'NONE', #201, #178, #181 ) ;
#164 = DIRECTION ( 'NONE',  ( 3.491481338843133355E-15, -1.217917285207545432E-16, 1.000000000000000000 ) ) ;
#165 = ADVANCED_FACE ( 'NONE', ( #180, #177 ), #107, .T. ) ;
#166 = PERSON_AND_ORGANIZATION_ROLE ( 'design_owner' ) ;
#167 = APPROVAL_STATUS ( 'not_yet_approved' ) ;
#168 = PERSON_AND_ORGANIZATION ( #229, #128 ) ;
#169 = ADVANCED_BREP_SHAPE_REPRESENTATION ( '57019', ( #149, #235, #231 ), #241 ) ;
#170 = CALENDAR_DATE ( 2021, 17, 11 ) ;
#171 = PRODUCT ( '57019', '57019', '', ( #184 ) ) ;
#172 = ORIENTED_EDGE ( 'NONE', *, *, #206, .T. ) ;
#173 = AXIS2_PLACEMENT_3D ( 'NONE', #29, #47, #33 ) ;
#174 = ADVANCED_FACE ( 'NONE', ( #87, #13 ), #144, .F. ) ;
#175 = APPROVAL_STATUS ( 'not_yet_approved' ) ;
#176 = APPLICATION_CONTEXT ( 'configuration controlled 3d designs of mechanical parts and assemblies' ) ;
#177 = FACE_OUTER_BOUND ( 'NONE', #208, .T. ) ;
#178 = DIRECTION ( 'NONE',  ( -3.491481338843133355E-15, 1.224646799147353207E-16, -1.000000000000000000 ) ) ;
#179 = AXIS2_PLACEMENT_3D ( 'NONE', #236, #240, #83 ) ;
#180 = FACE_BOUND ( 'NONE', #116, .T. ) ;
#181 = DIRECTION ( 'NONE',  ( 4.275831445896958607E-31, 1.000000000000000000, 1.224646799147353207E-16 ) ) ;
#182 = PLANE ( 'NONE',  #123 ) ;
#183 = CIRCLE ( 'NONE', #44, 3.000000000000000000 ) ;
#184 = MECHANICAL_CONTEXT ( 'NONE', #176, 'mechanical' ) ;
#185 = CALENDAR_DATE ( 2021, 17, 11 ) ;
#186 = DATE_AND_TIME ( #204, #220 ) ;
#187 = AXIS2_PLACEMENT_3D ( 'NONE', #219, #53, #88 ) ;
#188 = DIRECTION ( 'NONE',  ( -4.237045877651918877E-31, -1.000000000000000000, -1.192622389734054877E-16 ) ) ;
#189 = APPROVAL ( #205, 'UNSPECIFIED' ) ;
#190 = ORIENTED_EDGE ( 'NONE', *, *, #52, .T. ) ;
#191 = DATE_TIME_ROLE ( 'classification_date' ) ;
#192 = ADVANCED_FACE ( 'NONE', ( #161 ), #160, .T. ) ;
#193 = ORIENTED_EDGE ( 'NONE', *, *, #16, .F. ) ;
#194 = LOCAL_TIME ( 10, 21, 0.0000000000000000000, #232 ) ;
#195 = EDGE_CURVE ( 'NONE', #242, #242, #55, .T. ) ;
#196 = DIRECTION ( 'NONE',  ( -4.275831445896958607E-31, -1.000000000000000000, -1.224646799147353207E-16 ) ) ;
#197 = FACE_OUTER_BOUND ( 'NONE', #98, .T. ) ;
#198 = AXIS2_PLACEMENT_3D ( 'NONE', #142, #15, #118 ) ;
#199 = CARTESIAN_POINT ( 'NONE',  ( 4.538925740496073362E-14, 2.249639673992783675E-32, 13.00000000000000000 ) ) ;
#200 = CARTESIAN_POINT ( 'NONE',  ( 4.538925740496072731E-14, 0.0000000000000000000, 12.99999999999999822 ) ) ;
#201 = CARTESIAN_POINT ( 'NONE',  ( 1.990144363140586139E-13, 1.874699728327311610E-32, 57.00000000000000000 ) ) ;
#202 = PRODUCT_DEFINITION ( 'UNKNOWN', '', #114, #211 ) ;
#203 = COORDINATED_UNIVERSAL_TIME_OFFSET ( 1, 0, .AHEAD. ) ;
#204 = CALENDAR_DATE ( 2021, 17, 11 ) ;
#205 = APPROVAL_STATUS ( 'not_yet_approved' ) ;
#206 = EDGE_CURVE ( 'NONE', #145, #145, #49, .T. ) ;
#207 = SHAPE_DEFINITION_REPRESENTATION ( #153, #169 ) ;
#208 = EDGE_LOOP ( 'NONE', ( #209 ) ) ;
#209 = ORIENTED_EDGE ( 'NONE', *, *, #195, .F. ) ;
#210 = CIRCLE ( 'NONE', #237, 2.299999999999998934 ) ;
#211 = DESIGN_CONTEXT ( 'detailed design', #93, 'design' ) ;
#212 = DATE_AND_TIME ( #99, #35 ) ;
#213 = EDGE_LOOP ( 'NONE', ( #130 ) ) ;
#214 = DIRECTION ( 'NONE',  ( 1.000000000000000000, 0.0000000000000000000, -3.491481338843133355E-15 ) ) ;
#215 = DIRECTION ( 'NONE',  ( 3.491481338843133355E-15, -1.224646799147353207E-16, 1.000000000000000000 ) ) ;
#216 = DIRECTION ( 'NONE',  ( -1.000000000000000000, 0.0000000000000000000, 3.469446951953614189E-15 ) ) ;
#217 = DIRECTION ( 'NONE',  ( 0.0000000000000000000, 1.000000000000000000, 0.0000000000000000000 ) ) ;
#218 = CARTESIAN_POINT ( 'NONE',  ( -6.413747168845438786E-31, 0.0000000000000000000, -1.836970198721029934E-16 ) ) ;
#219 = CARTESIAN_POINT ( 'NONE',  ( 1.972686956446370283E-13, -6.919254415182544548E-15, 56.49999999999999289 ) ) ;
#220 = LOCAL_TIME ( 10, 21, 0.0000000000000000000, #222 ) ;
#221 = CARTESIAN_POINT ( 'NONE',  ( -1.956074317836051198E-30, -2.299999999999998934, -5.602419511954706327E-16 ) ) ;
#222 = COORDINATED_UNIVERSAL_TIME_OFFSET ( 1, 0, .AHEAD. ) ;
#223 = PERSON_AND_ORGANIZATION ( #229, #128 ) ;
#224 = VERTEX_POINT ( 'NONE', #60 ) ;
#225 = EDGE_CURVE ( 'NONE', #126, #126, #54, .T. ) ;
#226 = EDGE_LOOP ( 'NONE', ( #150 ) ) ;
#227 = ORIENTED_EDGE ( 'NONE', *, *, #195, .T. ) ;
#228 = PERSON_AND_ORGANIZATION_ROLE ( 'classification_officer' ) ;
#229 = PERSON ( 'UNSPECIFIED', 'UNSPECIFIED', 'UNSPECIFIED', ('UNSPECIFIED'), ('UNSPECIFIED'), ('UNSPECIFIED') ) ;
#230 = ORIENTED_EDGE ( 'NONE', *, *, #225, .F. ) ;
#231 = AXIS2_PLACEMENT_3D ( 'NONE', #18, #3, #108 ) ;
#232 = COORDINATED_UNIVERSAL_TIME_OFFSET ( 1, 0, .AHEAD. ) ;
#233 = PERSON_AND_ORGANIZATION_ROLE ( 'creator' ) ;
#234 = CC_DESIGN_DATE_AND_TIME_ASSIGNMENT ( #186, #91, ( #202 ) ) ;
#235 = MANIFOLD_SOLID_BREP ( 'Corps-Déplacer/Copier1[2]', #95 ) ;
#236 = CARTESIAN_POINT ( 'NONE',  ( 0.0000000000000000000, 0.0000000000000000000, 0.0000000000000000000 ) ) ;
#237 = AXIS2_PLACEMENT_3D ( 'NONE', #106, #164, #69 ) ;
#238 = DIRECTION ( 'NONE',  ( -3.491481338843133355E-15, 1.224646799147353207E-16, -1.000000000000000000 ) ) ;
#239 = DIRECTION ( 'NONE',  ( 1.000000000000000000, 0.0000000000000000000, -3.469446951953618528E-15 ) ) ;
#240 = DIRECTION ( 'NONE',  ( -3.491481338843133355E-15, 1.224646799147353207E-16, -1.000000000000000000 ) ) ;
#241 =( GEOMETRIC_REPRESENTATION_CONTEXT ( 3 ) GLOBAL_UNCERTAINTY_ASSIGNED_CONTEXT ( ( #132 ) ) GLOBAL_UNIT_ASSIGNED_CONTEXT ( ( #129, #75, #110 ) ) REPRESENTATION_CONTEXT ( 'NONE', 'WORKASPACE' ) );
#242 = VERTEX_POINT ( 'NONE', #73 ) ;
#243 = APPROVAL_ROLE ( '' ) ;
ENDSEC;
END-ISO-10303-21;
