ISO-10303-21;
HEADER;
FILE_DESCRIPTION (( 'STEP AP203' ),
    '1' );
FILE_NAME ('57018.step',
    '2021-11-17T09:20:59',
    ( '' ),
    ( '' ),
    'SwSTEP 2.0',
    'SolidWorks 2019',
    '' );
FILE_SCHEMA (( 'CONFIG_CONTROL_DESIGN' ));
ENDSEC;

DATA;
#1 = DIRECTION ( 'NONE',  ( 4.275831445896959482E-31, 1.000000000000000000, 1.224646799147353207E-16 ) ) ;
#2 = ADVANCED_FACE ( 'NONE', ( #36, #18 ), #118, .T. ) ;
#3 = CARTESIAN_POINT ( 'NONE',  ( -6.413747168845438786E-31, 2.249639673992786412E-32, -1.836970198721029934E-16 ) ) ;
#4 = CARTESIAN_POINT ( 'NONE',  ( 3.491481338843132093E-14, 0.0000000000000000000, 9.999999999999996447 ) ) ;
#5 = DIRECTION ( 'NONE',  ( -1.000000000000000000, 0.0000000000000000000, 3.469446951953614189E-15 ) ) ;
#6 = CC_DESIGN_PERSON_AND_ORGANIZATION_ASSIGNMENT ( #105, #9, ( #119 ) ) ;
#7 = AXIS2_PLACEMENT_3D ( 'NONE', #195, #62, #154 ) ;
#8 =( LENGTH_UNIT ( ) NAMED_UNIT ( * ) SI_UNIT ( .MILLI., .METRE. ) );
#9 = PERSON_AND_ORGANIZATION_ROLE ( 'creator' ) ;
#10 = LOCAL_TIME ( 10, 20, 59.00000000000000000, #16 ) ;
#11 = MECHANICAL_CONTEXT ( 'NONE', #223, 'mechanical' ) ;
#12 = CARTESIAN_POINT ( 'NONE',  ( 1.990144363140586139E-13, -6.980486755139912911E-15, 57.00000000000000000 ) ) ;
#13 = APPROVAL_ROLE ( '' ) ;
#14 = ADVANCED_FACE ( 'NONE', ( #21, #99 ), #240, .T. ) ;
#15 = ORIENTED_EDGE ( 'NONE', *, *, #243, .T. ) ;
#16 = COORDINATED_UNIVERSAL_TIME_OFFSET ( 1, 0, .AHEAD. ) ;
#17 = AXIS2_PLACEMENT_3D ( 'NONE', #217, #59, #5 ) ;
#18 = FACE_OUTER_BOUND ( 'NONE', #52, .T. ) ;
#19 = DIRECTION ( 'NONE',  ( 4.275831445896958607E-31, 1.000000000000000000, 1.224646799147353207E-16 ) ) ;
#20 = APPROVAL ( #172, 'UNSPECIFIED' ) ;
#21 = FACE_BOUND ( 'NONE', #149, .T. ) ;
#22 = CIRCLE ( 'NONE', #17, 3.000000000000000000 ) ;
#23 = PERSON ( 'UNSPECIFIED', 'UNSPECIFIED', 'UNSPECIFIED', ('UNSPECIFIED'), ('UNSPECIFIED'), ('UNSPECIFIED') ) ;
#24 = CARTESIAN_POINT ( 'NONE',  ( 3.491481338843132724E-14, 2.249639673992785317E-32, 9.999999999999998224 ) ) ;
#25 = DIRECTION ( 'NONE',  ( -3.491481338843133355E-15, 1.224646799147353207E-16, -1.000000000000000000 ) ) ;
#26 = CC_DESIGN_DATE_AND_TIME_ASSIGNMENT ( #142, #182, ( #119 ) ) ;
#27 = FACE_OUTER_BOUND ( 'NONE', #170, .T. ) ;
#28 = AXIS2_PLACEMENT_3D ( 'NONE', #77, #94, #178 ) ;
#29 = PERSON_AND_ORGANIZATION_ROLE ( 'design_owner' ) ;
#30 = APPROVAL_STATUS ( 'not_yet_approved' ) ;
#31 = APPROVAL_DATE_TIME ( #206, #220 ) ;
#32 = PRODUCT_RELATED_PRODUCT_CATEGORY ( 'detail', '', ( #169 ) ) ;
#33 = CC_DESIGN_DATE_AND_TIME_ASSIGNMENT ( #222, #150, ( #219 ) ) ;
#34 = EDGE_LOOP ( 'NONE', ( #190 ) ) ;
#35 = APPROVAL_DATE_TIME ( #53, #213 ) ;
#36 = FACE_OUTER_BOUND ( 'NONE', #146, .T. ) ;
#37 = APPROVAL_PERSON_ORGANIZATION ( #171, #20, #13 ) ;
#38 = DIRECTION ( 'NONE',  ( 1.000000000000000000, 0.0000000000000000000, -3.491481338843133355E-15 ) ) ;
#39 = DIRECTION ( 'NONE',  ( 3.491481338843133355E-15, -0.0000000000000000000, 1.000000000000000000 ) ) ;
#40 = DIRECTION ( 'NONE',  ( -4.333342374871280669E-31, -1.000000000000000000, -1.219727444046192488E-16 ) ) ;
#41 = AXIS2_PLACEMENT_3D ( 'NONE', #64, #87, #124 ) ;
#42 = EDGE_CURVE ( 'NONE', #237, #237, #168, .T. ) ;
#43 = DIRECTION ( 'NONE',  ( 3.491481338843133355E-15, -1.224646799147353207E-16, 1.000000000000000000 ) ) ;
#44 = DIRECTION ( 'NONE',  ( 1.000000000000000000, 0.0000000000000000000, -3.469446951953617344E-15 ) ) ;
#45 = DIRECTION ( 'NONE',  ( -3.491481338843133355E-15, 1.224646799147353207E-16, -1.000000000000000000 ) ) ;
#46 = CC_DESIGN_APPROVAL ( #220, ( #119 ) ) ;
#47 = APPROVAL_STATUS ( 'not_yet_approved' ) ;
#48 = VERTEX_POINT ( 'NONE', #68 ) ;
#49 = TOROIDAL_SURFACE ( 'NONE', #163, 9.999999999999998224, 8.000000000000000000 ) ;
#50 = EDGE_CURVE ( 'NONE', #101, #101, #22, .T. ) ;
#51 = APPROVAL_DATE_TIME ( #208, #20 ) ;
#52 = EDGE_LOOP ( 'NONE', ( #55 ) ) ;
#53 = DATE_AND_TIME ( #128, #187 ) ;
#54 = ORIENTED_EDGE ( 'NONE', *, *, #111, .T. ) ;
#55 = ORIENTED_EDGE ( 'NONE', *, *, #42, .T. ) ;
#56 = FACE_OUTER_BOUND ( 'NONE', #212, .T. ) ;
#57 = ORGANIZATION ( 'UNSPECIFIED', 'UNSPECIFIED', '' ) ;
#58 = DIRECTION ( 'NONE',  ( 0.0000000000000000000, 1.000000000000000000, 0.0000000000000000000 ) ) ;
#59 = DIRECTION ( 'NONE',  ( 3.491481338843133355E-15, -0.0000000000000000000, 1.000000000000000000 ) ) ;
#60 = ADVANCED_FACE ( 'NONE', ( #113 ), #137, .T. ) ;
#61 = DIRECTION ( 'NONE',  ( 3.491481338843133355E-15, -1.217917285207545432E-16, 1.000000000000000000 ) ) ;
#62 = DIRECTION ( 'NONE',  ( -3.491481338843133355E-15, 1.224646799147353207E-16, -1.000000000000000000 ) ) ;
#63 = PERSON_AND_ORGANIZATION ( #23, #57 ) ;
#64 = CARTESIAN_POINT ( 'NONE',  ( 0.0000000000000000000, 0.0000000000000000000, 0.0000000000000000000 ) ) ;
#65 = EDGE_CURVE ( 'NONE', #104, #104, #205, .T. ) ;
#66 = AXIS2_PLACEMENT_3D ( 'NONE', #24, #97, #114 ) ;
#67 = CARTESIAN_POINT ( 'NONE',  ( 2.000000000000033307, 0.0000000000000000000, 9.999999999999989342 ) ) ;
#68 = CARTESIAN_POINT ( 'NONE',  ( 1.990144363140586139E-13, 2.499999999999992895, 57.00000000000000000 ) ) ;
#69 = CC_DESIGN_PERSON_AND_ORGANIZATION_ASSIGNMENT ( #236, #29, ( #169 ) ) ;
#70 = CARTESIAN_POINT ( 'NONE',  ( -1.530840770480387704E-30, -1.799999999999999156, -4.384502226747160894E-16 ) ) ;
#71 = AXIS2_PLACEMENT_3D ( 'NONE', #138, #39, #38 ) ;
#72 = PERSON_AND_ORGANIZATION ( #23, #57 ) ;
#73 = UNCERTAINTY_MEASURE_WITH_UNIT (LENGTH_MEASURE( 1.000000000000000082E-05 ), #8, 'distance_accuracy_value', 'NONE');
#74 = PERSON_AND_ORGANIZATION_ROLE ( 'design_supplier' ) ;
#75 = ORIENTED_EDGE ( 'NONE', *, *, #65, .T. ) ;
#76 = CC_DESIGN_PERSON_AND_ORGANIZATION_ASSIGNMENT ( #72, #241, ( #224 ) ) ;
#77 = CARTESIAN_POINT ( 'NONE',  ( 3.491481338843132093E-14, 0.0000000000000000000, 9.999999999999996447 ) ) ;
#78 = FACE_OUTER_BOUND ( 'NONE', #211, .T. ) ;
#79 = DIRECTION ( 'NONE',  ( -3.491481338843133355E-15, 1.224646799147353207E-16, -1.000000000000000000 ) ) ;
#80 = FACE_OUTER_BOUND ( 'NONE', #129, .T. ) ;
#81 = CARTESIAN_POINT ( 'NONE',  ( -7.654203852401938520E-31, 2.669980524493169660E-32, -2.192251113373580447E-16 ) ) ;
#82 = CC_DESIGN_APPROVAL ( #213, ( #224 ) ) ;
#83 = COORDINATED_UNIVERSAL_TIME_OFFSET ( 1, 0, .AHEAD. ) ;
#84 = APPROVAL_ROLE ( '' ) ;
#85 = APPROVAL_PERSON_ORGANIZATION ( #63, #220, #84 ) ;
#86 = ADVANCED_FACE ( 'NONE', ( #80 ), #200, .F. ) ;
#87 = DIRECTION ( 'NONE',  ( 0.0000000000000000000, 0.0000000000000000000, 1.000000000000000000 ) ) ;
#88 = CALENDAR_DATE ( 2021, 17, 11 ) ;
#89 = EDGE_LOOP ( 'NONE', ( #214 ) ) ;
#90 = PERSON_AND_ORGANIZATION ( #23, #57 ) ;
#91 = EDGE_LOOP ( 'NONE', ( #192 ) ) ;
#92 = AXIS2_PLACEMENT_3D ( 'NONE', #98, #155, #19 ) ;
#93 = EDGE_LOOP ( 'NONE', ( #54 ) ) ;
#94 = DIRECTION ( 'NONE',  ( 3.491481338843133355E-15, -0.0000000000000000000, 1.000000000000000000 ) ) ;
#95 = DIRECTION ( 'NONE',  ( -4.275831445896958607E-31, -1.000000000000000000, -1.224646799147353207E-16 ) ) ;
#96 = AXIS2_PLACEMENT_3D ( 'NONE', #81, #215, #158 ) ;
#97 = DIRECTION ( 'NONE',  ( 3.491481338843133355E-15, -1.224646799147353207E-16, 1.000000000000000000 ) ) ;
#98 = CARTESIAN_POINT ( 'NONE',  ( 1.990144363140586139E-13, 1.874699728327311610E-32, 57.00000000000000000 ) ) ;
#99 = FACE_OUTER_BOUND ( 'NONE', #225, .T. ) ;
#100 = AXIS2_PLACEMENT_3D ( 'NONE', #216, #174, #58 ) ;
#101 = VERTEX_POINT ( 'NONE', #204 ) ;
#102 =( NAMED_UNIT ( * ) PLANE_ANGLE_UNIT ( ) SI_UNIT ( $, .RADIAN. ) );
#103 = AXIS2_PLACEMENT_3D ( 'NONE', #229, #43, #95 ) ;
#104 = VERTEX_POINT ( 'NONE', #203 ) ;
#105 = PERSON_AND_ORGANIZATION ( #23, #57 ) ;
#106 = ORIENTED_EDGE ( 'NONE', *, *, #197, .T. ) ;
#107 = CIRCLE ( 'NONE', #96, 1.799999999999999156 ) ;
#108 = PERSON_AND_ORGANIZATION ( #23, #57 ) ;
#109 = ORIENTED_EDGE ( 'NONE', *, *, #111, .F. ) ;
#110 = CALENDAR_DATE ( 2021, 17, 11 ) ;
#111 = EDGE_CURVE ( 'NONE', #143, #143, #139, .T. ) ;
#112 = EDGE_LOOP ( 'NONE', ( #207 ) ) ;
#113 = FACE_OUTER_BOUND ( 'NONE', #112, .T. ) ;
#114 = DIRECTION ( 'NONE',  ( -4.275831445896958607E-31, -1.000000000000000000, -1.224646799147353207E-16 ) ) ;
#115 = DIRECTION ( 'NONE',  ( 3.491481338843133355E-15, -0.0000000000000000000, 1.000000000000000000 ) ) ;
#116 = LOCAL_TIME ( 10, 20, 59.00000000000000000, #145 ) ;
#117 = DIRECTION ( 'NONE',  ( 3.491481338843133355E-15, -0.0000000000000000000, 1.000000000000000000 ) ) ;
#118 = CYLINDRICAL_SURFACE ( 'NONE', #71, 1.999999999999999112 ) ;
#119 = PRODUCT_DEFINITION ( 'UNKNOWN', '', #224, #188 ) ;
#120 = DIRECTION ( 'NONE',  ( 4.275831445896958607E-31, 1.000000000000000000, 1.224646799147353207E-16 ) ) ;
#121 = AXIS2_PLACEMENT_3D ( 'NONE', #3, #79, #120 ) ;
#122 = PERSON_AND_ORGANIZATION ( #23, #57 ) ;
#123 = VERTEX_POINT ( 'NONE', #67 ) ;
#124 = DIRECTION ( 'NONE',  ( 1.000000000000000000, 0.0000000000000000000, 0.0000000000000000000 ) ) ;
#125 = CIRCLE ( 'NONE', #234, 2.500000000000000000 ) ;
#126 = APPLICATION_CONTEXT ( 'configuration controlled 3d designs of mechanical parts and assemblies' ) ;
#127 = DIRECTION ( 'NONE',  ( 0.0000000000000000000, 1.000000000000000000, 0.0000000000000000000 ) ) ;
#128 = CALENDAR_DATE ( 2021, 17, 11 ) ;
#129 = EDGE_LOOP ( 'NONE', ( #189 ) ) ;
#130 =( GEOMETRIC_REPRESENTATION_CONTEXT ( 3 ) GLOBAL_UNCERTAINTY_ASSIGNED_CONTEXT ( ( #73 ) ) GLOBAL_UNIT_ASSIGNED_CONTEXT ( ( #8, #102, #202 ) ) REPRESENTATION_CONTEXT ( 'NONE', 'WORKASPACE' ) );
#131 = SECURITY_CLASSIFICATION_LEVEL ( 'unclassified' ) ;
#132 = ORIENTED_EDGE ( 'NONE', *, *, #243, .F. ) ;
#133 = AXIS2_PLACEMENT_3D ( 'NONE', #199, #25, #1 ) ;
#134 = DIRECTION ( 'NONE',  ( 1.000000000000000000, 0.0000000000000000000, -3.491481338843133355E-15 ) ) ;
#135 = FACE_OUTER_BOUND ( 'NONE', #89, .T. ) ;
#136 = ADVANCED_FACE ( 'NONE', ( #177, #27 ), #49, .F. ) ;
#137 = PLANE ( 'NONE',  #103 ) ;
#138 = CARTESIAN_POINT ( 'NONE',  ( -6.413747168845438786E-31, 0.0000000000000000000, -1.836970198721029934E-16 ) ) ;
#139 = CIRCLE ( 'NONE', #100, 2.999999999999999556 ) ;
#140 = FACE_OUTER_BOUND ( 'NONE', #34, .T. ) ;
#141 = APPLICATION_PROTOCOL_DEFINITION ( 'international standard', 'config_control_design', 1994, #126 ) ;
#142 = DATE_AND_TIME ( #159, #201 ) ;
#143 = VERTEX_POINT ( 'NONE', #161 ) ;
#144 = APPROVAL_PERSON_ORGANIZATION ( #122, #213, #164 ) ;
#145 = COORDINATED_UNIVERSAL_TIME_OFFSET ( 1, 0, .AHEAD. ) ;
#146 = EDGE_LOOP ( 'NONE', ( #173 ) ) ;
#147 = CC_DESIGN_APPROVAL ( #20, ( #219 ) ) ;
#148 = MANIFOLD_SOLID_BREP ( 'Corps-Déplacer/Copier1[1]', #153 ) ;
#149 = EDGE_LOOP ( 'NONE', ( #106 ) ) ;
#150 = DATE_TIME_ROLE ( 'classification_date' ) ;
#151 = EDGE_LOOP ( 'NONE', ( #15 ) ) ;
#152 = DIRECTION ( 'NONE',  ( -4.333342374871280669E-31, -1.000000000000000000, -1.219727444046192488E-16 ) ) ;
#153 = CLOSED_SHELL ( 'NONE', ( #157, #210, #162, #136, #86 ) ) ;
#154 = DIRECTION ( 'NONE',  ( 0.0000000000000000000, 1.000000000000000000, 0.0000000000000000000 ) ) ;
#155 = DIRECTION ( 'NONE',  ( -3.491481338843133355E-15, 1.224646799147353207E-16, -1.000000000000000000 ) ) ;
#156 = FACE_OUTER_BOUND ( 'NONE', #93, .T. ) ;
#157 = ADVANCED_FACE ( 'NONE', ( #156, #135 ), #232, .T. ) ;
#158 = DIRECTION ( 'NONE',  ( -4.252335473556634068E-31, -1.000000000000000000, -1.217917285207545186E-16 ) ) ;
#159 = CALENDAR_DATE ( 2021, 17, 11 ) ;
#160 = COORDINATED_UNIVERSAL_TIME_OFFSET ( 1, 0, .AHEAD. ) ;
#161 = CARTESIAN_POINT ( 'NONE',  ( 1.972686956446370283E-13, 2.999999999999992895, 56.49999999999999289 ) ) ;
#162 = ADVANCED_FACE ( 'NONE', ( #56 ), #176, .F. ) ;
#163 = AXIS2_PLACEMENT_3D ( 'NONE', #179, #117, #134 ) ;
#164 = APPROVAL_ROLE ( '' ) ;
#165 = APPLICATION_PROTOCOL_DEFINITION ( 'international standard', 'config_control_design', 1994, #223 ) ;
#166 = CC_DESIGN_PERSON_AND_ORGANIZATION_ASSIGNMENT ( #108, #74, ( #224 ) ) ;
#167 = COORDINATED_UNIVERSAL_TIME_OFFSET ( 1, 0, .AHEAD. ) ;
#168 = CIRCLE ( 'NONE', #196, 2.000000000000000000 ) ;
#169 = PRODUCT ( '57018', '57018', '', ( #11 ) ) ;
#170 = EDGE_LOOP ( 'NONE', ( #75 ) ) ;
#171 = PERSON_AND_ORGANIZATION ( #23, #57 ) ;
#172 = APPROVAL_STATUS ( 'not_yet_approved' ) ;
#173 = ORIENTED_EDGE ( 'NONE', *, *, #184, .F. ) ;
#174 = DIRECTION ( 'NONE',  ( -3.491481338843133355E-15, 1.224646799147353207E-16, -1.000000000000000000 ) ) ;
#175 = AXIS2_PLACEMENT_3D ( 'NONE', #218, #198, #40 ) ;
#176 = PLANE ( 'NONE',  #92 ) ;
#177 = FACE_OUTER_BOUND ( 'NONE', #91, .T. ) ;
#178 = DIRECTION ( 'NONE',  ( 1.000000000000000000, 0.0000000000000000000, -3.469446951953617344E-15 ) ) ;
#179 = CARTESIAN_POINT ( 'NONE',  ( 3.491481338843132724E-14, 0.0000000000000000000, 9.999999999999998224 ) ) ;
#180 = VERTEX_POINT ( 'NONE', #70 ) ;
#181 = ADVANCED_BREP_SHAPE_REPRESENTATION ( '57018', ( #148, #233, #41 ), #130 ) ;
#182 = DATE_TIME_ROLE ( 'creation_date' ) ;
#183 = CC_DESIGN_SECURITY_CLASSIFICATION ( #219, ( #224 ) ) ;
#184 = EDGE_CURVE ( 'NONE', #123, #123, #209, .T. ) ;
#185 = PRODUCT_DEFINITION_SHAPE ( 'NONE', 'NONE',  #119 ) ;
#186 = SHAPE_DEFINITION_REPRESENTATION ( #185, #181 ) ;
#187 = LOCAL_TIME ( 10, 20, 59.00000000000000000, #167 ) ;
#188 = DESIGN_CONTEXT ( 'detailed design', #126, 'design' ) ;
#189 = ORIENTED_EDGE ( 'NONE', *, *, #65, .F. ) ;
#190 = ORIENTED_EDGE ( 'NONE', *, *, #197, .F. ) ;
#191 = LOCAL_TIME ( 10, 20, 59.00000000000000000, #83 ) ;
#192 = ORIENTED_EDGE ( 'NONE', *, *, #50, .F. ) ;
#193 = CC_DESIGN_PERSON_AND_ORGANIZATION_ASSIGNMENT ( #90, #227, ( #219 ) ) ;
#194 = CARTESIAN_POINT ( 'NONE',  ( 6.982962677686250933E-16, -2.435834570415085380E-17, 0.1999999999999995393 ) ) ;
#195 = CARTESIAN_POINT ( 'NONE',  ( 1.972686956446370283E-13, -6.919254415182544548E-15, 56.49999999999999289 ) ) ;
#196 = AXIS2_PLACEMENT_3D ( 'NONE', #194, #61, #152 ) ;
#197 = EDGE_CURVE ( 'NONE', #180, #180, #107, .T. ) ;
#198 = DIRECTION ( 'NONE',  ( 3.491481338843133355E-15, -1.217917285207545432E-16, 1.000000000000000000 ) ) ;
#199 = CARTESIAN_POINT ( 'NONE',  ( 0.0000000000000000000, 0.0000000000000000000, 0.0000000000000000000 ) ) ;
#200 = PLANE ( 'NONE',  #66 ) ;
#201 = LOCAL_TIME ( 10, 20, 59.00000000000000000, #160 ) ;
#202 =( NAMED_UNIT ( * ) SI_UNIT ( $, .STERADIAN. ) SOLID_ANGLE_UNIT ( ) );
#203 = CARTESIAN_POINT ( 'NONE',  ( 2.000000000000033307, 0.0000000000000000000, 9.999999999999989342 ) ) ;
#204 = CARTESIAN_POINT ( 'NONE',  ( -2.999999999999951594, 0.0000000000000000000, 13.87298334620742857 ) ) ;
#205 = CIRCLE ( 'NONE', #242, 1.999999999999998224 ) ;
#206 = DATE_AND_TIME ( #239, #191 ) ;
#207 = ORIENTED_EDGE ( 'NONE', *, *, #184, .T. ) ;
#208 = DATE_AND_TIME ( #88, #10 ) ;
#209 = CIRCLE ( 'NONE', #28, 1.999999999999998224 ) ;
#210 = ADVANCED_FACE ( 'NONE', ( #235, #78 ), #230, .T. ) ;
#211 = EDGE_LOOP ( 'NONE', ( #109 ) ) ;
#212 = EDGE_LOOP ( 'NONE', ( #132 ) ) ;
#213 = APPROVAL ( #30, 'UNSPECIFIED' ) ;
#214 = ORIENTED_EDGE ( 'NONE', *, *, #50, .T. ) ;
#215 = DIRECTION ( 'NONE',  ( 3.491481338843133355E-15, -1.217917285207545432E-16, 1.000000000000000000 ) ) ;
#216 = CARTESIAN_POINT ( 'NONE',  ( 1.972686956446370283E-13, -6.919254415182544548E-15, 56.49999999999999289 ) ) ;
#217 = CARTESIAN_POINT ( 'NONE',  ( 4.843726246736477116E-14, 0.0000000000000000000, 13.87298334620741969 ) ) ;
#218 = CARTESIAN_POINT ( 'NONE',  ( 6.982962677686250933E-16, -2.435834570415085380E-17, 0.1999999999999995393 ) ) ;
#219 = SECURITY_CLASSIFICATION ( '', '', #131 ) ;
#220 = APPROVAL ( #47, 'UNSPECIFIED' ) ;
#221 = CLOSED_SHELL ( 'NONE', ( #2, #60, #14, #226 ) ) ;
#222 = DATE_AND_TIME ( #110, #116 ) ;
#223 = APPLICATION_CONTEXT ( 'configuration controlled 3d designs of mechanical parts and assemblies' ) ;
#224 = PRODUCT_DEFINITION_FORMATION_WITH_SPECIFIED_SOURCE ( 'ANY', '', #169, .NOT_KNOWN. ) ;
#225 = EDGE_LOOP ( 'NONE', ( #228 ) ) ;
#226 = ADVANCED_FACE ( 'NONE', ( #140 ), #231, .T. ) ;
#227 = PERSON_AND_ORGANIZATION_ROLE ( 'classification_officer' ) ;
#228 = ORIENTED_EDGE ( 'NONE', *, *, #42, .F. ) ;
#229 = CARTESIAN_POINT ( 'NONE',  ( 3.491481338843132724E-14, 2.249639673992785317E-32, 9.999999999999998224 ) ) ;
#230 = CONICAL_SURFACE ( 'NONE', #7, 2.999999999999999556, 0.7853981633974405074 ) ;
#231 = PLANE ( 'NONE',  #121 ) ;
#232 = CYLINDRICAL_SURFACE ( 'NONE', #133, 3.000000000000000000 ) ;
#233 = MANIFOLD_SOLID_BREP ( 'Corps-Déplacer/Copier1[2]', #221 ) ;
#234 = AXIS2_PLACEMENT_3D ( 'NONE', #12, #45, #127 ) ;
#235 = FACE_BOUND ( 'NONE', #151, .T. ) ;
#236 = PERSON_AND_ORGANIZATION ( #23, #57 ) ;
#237 = VERTEX_POINT ( 'NONE', #238 ) ;
#238 = CARTESIAN_POINT ( 'NONE',  ( 6.982962677686242059E-16, -2.000000000000000000, 0.1999999999999993172 ) ) ;
#239 = CALENDAR_DATE ( 2021, 17, 11 ) ;
#240 = CONICAL_SURFACE ( 'NONE', #175, 2.000000000000000000, 0.7853981633974512766 ) ;
#241 = PERSON_AND_ORGANIZATION_ROLE ( 'creator' ) ;
#242 = AXIS2_PLACEMENT_3D ( 'NONE', #4, #115, #44 ) ;
#243 = EDGE_CURVE ( 'NONE', #48, #48, #125, .T. ) ;
ENDSEC;
END-ISO-10303-21;
