ISO-10303-21;
HEADER;
FILE_DESCRIPTION (( 'STEP AP203' ),
    '1' );
FILE_NAME ('57015.step',
    '2024-04-04T13:46:37',
    ( '' ),
    ( '' ),
    'SwSTEP 2.0',
    'SolidWorks 2022',
    '' );
FILE_SCHEMA (( 'CONFIG_CONTROL_DESIGN' ));
ENDSEC;

DATA;
#1 = DIRECTION ( 'NONE',  ( 0.000000000000000000, -1.000000000000000000, 0.000000000000000000 ) ) ;
#2 = CARTESIAN_POINT ( 'NONE',  ( 8.379555213223520053E-14, 4.949999999999997513, 24.00000000000000000 ) ) ;
#3 = APPROVAL_PERSON_ORGANIZATION ( #331, #137, #45 ) ;
#4 = CC_DESIGN_PERSON_AND_ORGANIZATION_ASSIGNMENT ( #97, #132, ( #60 ) ) ;
#5 = CARTESIAN_POINT ( 'NONE',  ( 8.379555213223520053E-14, -2.939152317953647894E-15, 24.00000000000000000 ) ) ;
#6 = CARTESIAN_POINT ( 'NONE',  ( 2.478951750578624304E-13, -8.694992273946206563E-15, 71.00000000000000000 ) ) ;
#7 = CARTESIAN_POINT ( 'NONE',  ( 8.379555213223520053E-14, -4.950000000000002842, 24.00000000000000000 ) ) ;
#8 = AXIS2_PLACEMENT_3D ( 'NONE', #120, #316, #66 ) ;
#9 = APPROVAL ( #275, 'UNSPECIFIED' ) ;
#10 = CARTESIAN_POINT ( 'NONE',  ( 8.379555213223520053E-14, 0.000000000000000000, 24.00000000000000000 ) ) ;
#11 = DIRECTION ( 'NONE',  ( 3.491481338843133355E-15, -1.224646799147353207E-16, 1.000000000000000000 ) ) ;
#12 = DIRECTION ( 'NONE',  ( 3.491481338843133355E-15, -0.000000000000000000, 1.000000000000000000 ) ) ;
#13 = AXIS2_PLACEMENT_3D ( 'NONE', #5, #197, #1 ) ;
#14 = DIRECTION ( 'NONE',  ( -3.491481338843133355E-15, 1.224646799147353207E-16, -1.000000000000000000 ) ) ;
#15 = CARTESIAN_POINT ( 'NONE',  ( 4.950000000000000178, 0.000000000000000000, -1.728283262727351011E-14 ) ) ;
#16 = VERTEX_POINT ( 'NONE', #352 ) ;
#17 = CC_DESIGN_APPROVAL ( #137, ( #60 ) ) ;
#18 =( LENGTH_UNIT ( ) NAMED_UNIT ( * ) SI_UNIT ( .MILLI., .METRE. ) );
#19 = EDGE_CURVE ( 'NONE', #16, #276, #274, .T. ) ;
#20 = ORIENTED_EDGE ( 'NONE', *, *, #129, .F. ) ;
#21 = COORDINATED_UNIVERSAL_TIME_OFFSET ( 1, 0, .AHEAD. ) ;
#22 = CARTESIAN_POINT ( 'NONE',  ( 8.440175229781314077E-14, 4.949999999999997513, 24.00000000000000000 ) ) ;
#23 = APPROVAL_ROLE ( '' ) ;
#24 = ORIENTED_EDGE ( 'NONE', *, *, #245, .F. ) ;
#25 = EDGE_LOOP ( 'NONE', ( #193, #184, #216, #159 ) ) ;
#26 = CARTESIAN_POINT ( 'NONE',  ( 8.379555213223520053E-14, -2.939152317953647894E-15, 24.00000000000000000 ) ) ;
#27 = CC_DESIGN_PERSON_AND_ORGANIZATION_ASSIGNMENT ( #78, #324, ( #166 ) ) ;
#28 = CARTESIAN_POINT ( 'NONE',  ( 8.379555213223520053E-14, -2.939152317953647894E-15, 24.00000000000000000 ) ) ;
#29 = VECTOR ( 'NONE', #144, 1000.000000000000000 ) ;
#30 = CARTESIAN_POINT ( 'NONE',  ( 2.478951750578624304E-13, -8.694992273946206563E-15, 71.00000000000000000 ) ) ;
#31 = LOCAL_TIME ( 15, 46, 37.00000000000000000, #271 ) ;
#32 = DIRECTION ( 'NONE',  ( 3.491481338843133355E-15, -0.000000000000000000, 1.000000000000000000 ) ) ;
#33 = PLANE ( 'NONE',  #338 ) ;
#34 = EDGE_CURVE ( 'NONE', #329, #242, #99, .T. ) ;
#35 = DIRECTION ( 'NONE',  ( -3.491481338843133355E-15, 1.224646799147353207E-16, -1.000000000000000000 ) ) ;
#36 = CLOSED_SHELL ( 'NONE', ( #210, #196, #221, #98, #109, #345, #83, #154 ) ) ;
#37 = VECTOR ( 'NONE', #211, 1000.000000000000114 ) ;
#38 = CARTESIAN_POINT ( 'NONE',  ( 2.137915722948478427E-30, 4.999999999999997335, 6.123233995736763324E-16 ) ) ;
#39 = CARTESIAN_POINT ( 'NONE',  ( 8.379555213223520053E-14, 0.000000000000000000, 24.00000000000000000 ) ) ;
#40 = CYLINDRICAL_SURFACE ( 'NONE', #75, 4.999999999999997335 ) ;
#41 = AXIS2_PLACEMENT_3D ( 'NONE', #125, #273, #354 ) ;
#42 = CARTESIAN_POINT ( 'NONE',  ( 4.950000000000083666, 0.000000000000000000, 23.99999999999998224 ) ) ;
#43 = EDGE_LOOP ( 'NONE', ( #53, #103 ) ) ;
#44 = EDGE_CURVE ( 'NONE', #247, #249, #134, .T. ) ;
#45 = APPROVAL_ROLE ( '' ) ;
#46 = ORIENTED_EDGE ( 'NONE', *, *, #309, .F. ) ;
#47 = LOCAL_TIME ( 15, 46, 37.00000000000000000, #21 ) ;
#48 = SECURITY_CLASSIFICATION_LEVEL ( 'unclassified' ) ;
#49 = ORIENTED_EDGE ( 'NONE', *, *, #269, .F. ) ;
#50 = CARTESIAN_POINT ( 'NONE',  ( 2.478951750578624304E-13, -8.694992273946206563E-15, 71.00000000000000000 ) ) ;
#51 = PRODUCT_DEFINITION ( 'UNKNOWN', '', #60, #264 ) ;
#52 = MECHANICAL_CONTEXT ( 'NONE', #157, 'mechanical' ) ;
#53 = ORIENTED_EDGE ( 'NONE', *, *, #181, .T. ) ;
#54 = AXIS2_PLACEMENT_3D ( 'NONE', #229, #339, #203 ) ;
#55 = DIRECTION ( 'NONE',  ( -3.491481338843133355E-15, 1.224646799147353207E-16, -1.000000000000000000 ) ) ;
#56 = EDGE_CURVE ( 'NONE', #187, #106, #257, .T. ) ;
#57 = DIRECTION ( 'NONE',  ( 1.000000000000000000, 0.000000000000000000, -3.504491870660218137E-15 ) ) ;
#58 = DIRECTION ( 'NONE',  ( 0.000000000000000000, 1.000000000000000000, 0.000000000000000000 ) ) ;
#59 = DIRECTION ( 'NONE',  ( 1.687538997430237310E-14, -1.000000000000000000, 0.000000000000000000 ) ) ;
#60 = PRODUCT_DEFINITION_FORMATION_WITH_SPECIFIED_SOURCE ( 'ANY', '', #166, .NOT_KNOWN. ) ;
#61 = DIRECTION ( 'NONE',  ( -3.491481338843133355E-15, 1.224646799147349263E-16, -1.000000000000000000 ) ) ;
#62 = EDGE_CURVE ( 'NONE', #329, #106, #283, .T. ) ;
#63 = CARTESIAN_POINT ( 'NONE',  ( 8.428123209807733522E-14, 4.999999999999992006, 24.13910427085457755 ) ) ;
#64 = CARTESIAN_POINT ( 'NONE',  ( 1.667005269775435144E-13, -5.000000000000006217, 71.00000000000000000 ) ) ;
#65 = AXIS2_PLACEMENT_3D ( 'NONE', #39, #209, #91 ) ;
#66 = DIRECTION ( 'NONE',  ( 1.000000000000000000, 0.000000000000000000, -3.491481338843133355E-15 ) ) ;
#67 = DIRECTION ( 'NONE',  ( 0.000000000000000000, 1.000000000000000000, 0.000000000000000000 ) ) ;
#68 = CARTESIAN_POINT ( 'NONE',  ( 2.501920067869003115E-13, -3.999999999999997335, 72.00000000000000000 ) ) ;
#69 = ORIENTED_EDGE ( 'NONE', *, *, #123, .F. ) ;
#70 = CONICAL_SURFACE ( 'NONE', #312, 4.950000000000000178, 0.3450620389298179047 ) ;
#71 = VECTOR ( 'NONE', #236, 1000.000000000000000 ) ;
#72 = CALENDAR_DATE ( 2024, 4, 4 ) ;
#73 = DATE_AND_TIME ( #160, #31 ) ;
#74 = VERTEX_POINT ( 'NONE', #200 ) ;
#75 = AXIS2_PLACEMENT_3D ( 'NONE', #295, #148, #344 ) ;
#76 = PERSON_AND_ORGANIZATION_ROLE ( 'classification_officer' ) ;
#77 = ORIENTED_EDGE ( 'NONE', *, *, #175, .F. ) ;
#78 = PERSON_AND_ORGANIZATION ( #114, #340 ) ;
#79 = ORIENTED_EDGE ( 'NONE', *, *, #226, .T. ) ;
#80 = DIRECTION ( 'NONE',  ( 3.491481338843133355E-15, -0.000000000000000000, 1.000000000000000000 ) ) ;
#81 = AXIS2_PLACEMENT_3D ( 'NONE', #291, #14, #122 ) ;
#82 = CARTESIAN_POINT ( 'NONE',  ( 8.379555213223520053E-14, 0.000000000000000000, 24.00000000000000000 ) ) ;
#83 = ADVANCED_FACE ( 'NONE', ( #288 ), #322, .T. ) ;
#84 = DIRECTION ( 'NONE',  ( -1.598721155460225734E-14, -1.000000000000000000, 0.000000000000000000 ) ) ;
#85 = CALENDAR_DATE ( 2024, 4, 4 ) ;
#86 = DIRECTION ( 'NONE',  ( 0.000000000000000000, 1.000000000000000000, 0.000000000000000000 ) ) ;
#87 = CC_DESIGN_DATE_AND_TIME_ASSIGNMENT ( #186, #277, ( #51 ) ) ;
#88 = CONICAL_SURFACE ( 'NONE', #100, 4.999999999999997335, 0.7853981633974522758 ) ;
#89 = CARTESIAN_POINT ( 'NONE',  ( -4.949999999999915801, 6.062001655779397525E-16, 24.00000000000001776 ) ) ;
#90 = FACE_OUTER_BOUND ( 'NONE', #96, .T. ) ;
#91 = DIRECTION ( 'NONE',  ( 1.000000000000000000, 0.000000000000000000, -3.504491870660216954E-15 ) ) ;
#92 = ADVANCED_FACE ( 'NONE', ( #308 ), #143, .F. ) ;
#93 = CYLINDRICAL_SURFACE ( 'NONE', #65, 4.949999999999999289 ) ;
#94 = CC_DESIGN_SECURITY_CLASSIFICATION ( #208, ( #60 ) ) ;
#95 = LINE ( 'NONE', #146, #37 ) ;
#96 = EDGE_LOOP ( 'NONE', ( #20, #272, #335, #363 ) ) ;
#97 = PERSON_AND_ORGANIZATION ( #114, #340 ) ;
#98 = ADVANCED_FACE ( 'NONE', ( #343 ), #33, .T. ) ;
#99 = CIRCLE ( 'NONE', #290, 4.999999999999997335 ) ;
#100 = AXIS2_PLACEMENT_3D ( 'NONE', #6, #341, #58 ) ;
#101 = PERSON_AND_ORGANIZATION_ROLE ( 'creator' ) ;
#102 = ORIENTED_EDGE ( 'NONE', *, *, #44, .T. ) ;
#103 = ORIENTED_EDGE ( 'NONE', *, *, #171, .T. ) ;
#104 = PERSON_AND_ORGANIZATION ( #114, #340 ) ;
#105 = ORIENTED_EDGE ( 'NONE', *, *, #129, .T. ) ;
#106 = VERTEX_POINT ( 'NONE', #172 ) ;
#107 = ORIENTED_EDGE ( 'NONE', *, *, #44, .F. ) ;
#108 = DIRECTION ( 'NONE',  ( 3.491481338843133355E-15, -1.224646799147353207E-16, 1.000000000000000000 ) ) ;
#109 = ADVANCED_FACE ( 'NONE', ( #169 ), #113, .T. ) ;
#110 = CIRCLE ( 'NONE', #265, 4.999999999999997335 ) ;
#111 = CONICAL_SURFACE ( 'NONE', #116, 4.999999999999997335, 0.7853981633974522758 ) ;
#112 = DIRECTION ( 'NONE',  ( -1.000000000000000000, 0.000000000000000000, 3.491481338843133355E-15 ) ) ;
#113 = PLANE ( 'NONE',  #219 ) ;
#114 = PERSON ( 'UNSPECIFIED', 'UNSPECIFIED', 'UNSPECIFIED', ('UNSPECIFIED'), ('UNSPECIFIED'), ('UNSPECIFIED') ) ;
#115 = CARTESIAN_POINT ( 'NONE',  ( 4.950000000000081890, 0.000000000000000000, 23.99999999999998224 ) ) ;
#116 = AXIS2_PLACEMENT_3D ( 'NONE', #234, #183, #67 ) ;
#117 = DIRECTION ( 'NONE',  ( 3.285674118869263394E-15, -0.3382550599108810063, 0.9410544694355829076 ) ) ;
#118 = FACE_OUTER_BOUND ( 'NONE', #355, .T. ) ;
#119 = EDGE_CURVE ( 'NONE', #242, #329, #110, .T. ) ;
#120 = CARTESIAN_POINT ( 'NONE',  ( 2.137915722948479303E-31, 4.950000000000000178, 6.123233995736767268E-17 ) ) ;
#121 = DIRECTION ( 'NONE',  ( 1.000000000000000000, 0.000000000000000000, -3.491481338843133355E-15 ) ) ;
#122 = DIRECTION ( 'NONE',  ( 4.275831445896959482E-31, 1.000000000000000000, 1.224646799147353207E-16 ) ) ;
#123 = EDGE_CURVE ( 'NONE', #334, #242, #173, .T. ) ;
#124 = CARTESIAN_POINT ( 'NONE',  ( -4.950000000000000178, 6.062001655779450773E-16, 1.728283262727351642E-14 ) ) ;
#125 = CARTESIAN_POINT ( 'NONE',  ( 0.000000000000000000, 0.000000000000000000, 0.000000000000000000 ) ) ;
#126 = EDGE_LOOP ( 'NONE', ( #326, #153, #213, #24 ) ) ;
#127 =( GEOMETRIC_REPRESENTATION_CONTEXT ( 3 ) GLOBAL_UNCERTAINTY_ASSIGNED_CONTEXT ( ( #152 ) ) GLOBAL_UNIT_ASSIGNED_CONTEXT ( ( #18, #192, #217 ) ) REPRESENTATION_CONTEXT ( 'NONE', 'WORKASPACE' ) );
#128 = EDGE_LOOP ( 'NONE', ( #360, #223 ) ) ;
#129 = EDGE_CURVE ( 'NONE', #249, #74, #201, .T. ) ;
#130 = CALENDAR_DATE ( 2024, 4, 4 ) ;
#131 = DIRECTION ( 'NONE',  ( 3.327098416510789582E-15, 0.3382550599108808398, 0.9410544694355830186 ) ) ;
#132 = PERSON_AND_ORGANIZATION_ROLE ( 'design_supplier' ) ;
#133 = VERTEX_POINT ( 'NONE', #115 ) ;
#134 = CIRCLE ( 'NONE', #330, 4.950000000000000178 ) ;
#135 = CC_DESIGN_APPROVAL ( #336, ( #51 ) ) ;
#136 = ORIENTED_EDGE ( 'NONE', *, *, #256, .F. ) ;
#137 = APPROVAL ( #155, 'UNSPECIFIED' ) ;
#138 = DIRECTION ( 'NONE',  ( -3.491481338843133355E-15, 1.224646799147353207E-16, -1.000000000000000000 ) ) ;
#139 = DIRECTION ( 'NONE',  ( 0.000000000000000000, -1.000000000000000000, 0.000000000000000000 ) ) ;
#140 = AXIS2_PLACEMENT_3D ( 'NONE', #315, #263, #121 ) ;
#141 = DIRECTION ( 'NONE',  ( -3.491481338843133355E-15, 1.224646799147353207E-16, -1.000000000000000000 ) ) ;
#142 = EDGE_CURVE ( 'NONE', #276, #106, #311, .T. ) ;
#143 = PLANE ( 'NONE',  #284 ) ;
#144 = DIRECTION ( 'NONE',  ( -3.491481338843133355E-15, 1.224646799147353207E-16, -1.000000000000000000 ) ) ;
#145 = AXIS2_PLACEMENT_3D ( 'NONE', #267, #212, #260 ) ;
#146 = CARTESIAN_POINT ( 'NONE',  ( 2.485074984574361313E-13, -5.000000000000006217, 71.00000000000000000 ) ) ;
#147 = DIRECTION ( 'NONE',  ( -3.491481338843133355E-15, 1.224646799147353207E-16, -1.000000000000000000 ) ) ;
#148 = DIRECTION ( 'NONE',  ( -3.491481338843133355E-15, 1.224646799147353207E-16, -1.000000000000000000 ) ) ;
#149 = FACE_OUTER_BOUND ( 'NONE', #126, .T. ) ;
#150 = CIRCLE ( 'NONE', #259, 4.999999999999994671 ) ;
#151 = CC_DESIGN_PERSON_AND_ORGANIZATION_ASSIGNMENT ( #238, #350, ( #60 ) ) ;
#152 = UNCERTAINTY_MEASURE_WITH_UNIT (LENGTH_MEASURE( 1.000000000000000082E-05 ), #18, 'distance_accuracy_value', 'NONE');
#153 = ORIENTED_EDGE ( 'NONE', *, *, #34, .T. ) ;
#154 = ADVANCED_FACE ( 'NONE', ( #199 ), #88, .T. ) ;
#155 = APPROVAL_STATUS ( 'not_yet_approved' ) ;
#156 = ORIENTED_EDGE ( 'NONE', *, *, #287, .F. ) ;
#157 = APPLICATION_CONTEXT ( 'configuration controlled 3d designs of mechanical parts and assemblies' ) ;
#158 = PERSON_AND_ORGANIZATION ( #114, #340 ) ;
#159 = ORIENTED_EDGE ( 'NONE', *, *, #349, .F. ) ;
#160 = CALENDAR_DATE ( 2024, 4, 4 ) ;
#161 = ORIENTED_EDGE ( 'NONE', *, *, #34, .F. ) ;
#162 = CALENDAR_DATE ( 2024, 4, 4 ) ;
#163 = VECTOR ( 'NONE', #32, 1000.000000000000000 ) ;
#164 = CC_DESIGN_DATE_AND_TIME_ASSIGNMENT ( #243, #356, ( #208 ) ) ;
#165 = AXIS2_PLACEMENT_3D ( 'NONE', #26, #138, #86 ) ;
#166 = PRODUCT ( '57015', '57015', '', ( #52 ) ) ;
#167 = MANIFOLD_SOLID_BREP ( 'Corps-Déplacer/Copier1[1]', #36 ) ;
#168 = SHAPE_DEFINITION_REPRESENTATION ( #250, #314 ) ;
#169 = FACE_OUTER_BOUND ( 'NONE', #128, .T. ) ;
#170 = CARTESIAN_POINT ( 'NONE',  ( 8.403839211515627419E-14, -4.950000000000002842, 24.00000000000000000 ) ) ;
#171 = EDGE_CURVE ( 'NONE', #74, #133, #202, .T. ) ;
#172 = CARTESIAN_POINT ( 'NONE',  ( 1.667005269775435396E-13, -4.999999999999997335, 24.13910427085457755 ) ) ;
#173 = LINE ( 'NONE', #342, #176 ) ;
#174 = DIRECTION ( 'NONE',  ( 0.000000000000000000, 1.000000000000000000, 0.000000000000000000 ) ) ;
#175 = EDGE_CURVE ( 'NONE', #187, #16, #280, .T. ) ;
#176 = VECTOR ( 'NONE', #225, 1000.000000000000114 ) ;
#177 = LOCAL_TIME ( 15, 46, 37.00000000000000000, #325 ) ;
#178 = CARTESIAN_POINT ( 'NONE',  ( 2.496409157272839907E-13, 3.999999999999980016, 72.00000000000000000 ) ) ;
#179 = DIRECTION ( 'NONE',  ( 0.000000000000000000, -1.000000000000000000, 0.000000000000000000 ) ) ;
#180 = CARTESIAN_POINT ( 'NONE',  ( 8.428123209807733522E-14, -2.956187677958626025E-15, 24.13910427085457755 ) ) ;
#181 = EDGE_CURVE ( 'NONE', #133, #74, #279, .T. ) ;
#182 = MANIFOLD_SOLID_BREP ( 'Corps-Déplacer/Copier1[2]', #190 ) ;
#183 = DIRECTION ( 'NONE',  ( -3.491481338843133355E-15, 1.224646799147349263E-16, -1.000000000000000000 ) ) ;
#184 = ORIENTED_EDGE ( 'NONE', *, *, #62, .T. ) ;
#185 = ORIENTED_EDGE ( 'NONE', *, *, #181, .F. ) ;
#186 = DATE_AND_TIME ( #72, #177 ) ;
#187 = VERTEX_POINT ( 'NONE', #170 ) ;
#188 = APPROVAL_ROLE ( '' ) ;
#189 = ORIENTED_EDGE ( 'NONE', *, *, #56, .F. ) ;
#190 = CLOSED_SHELL ( 'NONE', ( #206, #262, #92, #215 ) ) ;
#191 = VECTOR ( 'NONE', #147, 1000.000000000000000 ) ;
#192 =( NAMED_UNIT ( * ) PLANE_ANGLE_UNIT ( ) SI_UNIT ( $, .RADIAN. ) );
#193 = ORIENTED_EDGE ( 'NONE', *, *, #119, .T. ) ;
#194 = APPLICATION_PROTOCOL_DEFINITION ( 'international standard', 'config_control_design', 1994, #204 ) ;
#195 = ORIENTED_EDGE ( 'NONE', *, *, #119, .F. ) ;
#196 = ADVANCED_FACE ( 'NONE', ( #282 ), #70, .T. ) ;
#197 = DIRECTION ( 'NONE',  ( 3.491481338843133355E-15, -1.224646799147353207E-16, 1.000000000000000000 ) ) ;
#198 = AXIS2_PLACEMENT_3D ( 'NONE', #266, #11, #179 ) ;
#199 = FACE_OUTER_BOUND ( 'NONE', #278, .T. ) ;
#200 = CARTESIAN_POINT ( 'NONE',  ( -4.949999999999914024, 6.062001655779396539E-16, 24.00000000000001776 ) ) ;
#201 = LINE ( 'NONE', #89, #163 ) ;
#202 = CIRCLE ( 'NONE', #54, 4.949999999999997513 ) ;
#203 = DIRECTION ( 'NONE',  ( 1.000000000000000000, 0.000000000000000000, -3.504491870660218137E-15 ) ) ;
#204 = APPLICATION_CONTEXT ( 'configuration controlled 3d designs of mechanical parts and assemblies' ) ;
#205 = CYLINDRICAL_SURFACE ( 'NONE', #359, 4.949999999999999289 ) ;
#206 = ADVANCED_FACE ( 'NONE', ( #118 ), #93, .T. ) ;
#207 = LINE ( 'NONE', #42, #71 ) ;
#208 = SECURITY_CLASSIFICATION ( '', '', #48 ) ;
#209 = DIRECTION ( 'NONE',  ( 3.491481338843133355E-15, -0.000000000000000000, 1.000000000000000000 ) ) ;
#210 = ADVANCED_FACE ( 'NONE', ( #292 ), #111, .T. ) ;
#211 = DIRECTION ( 'NONE',  ( -2.382254525458706031E-15, -0.7071067811865502373, -0.7071067811865449082 ) ) ;
#212 = DIRECTION ( 'NONE',  ( -3.491481338843133355E-15, 1.224646799147353207E-16, -1.000000000000000000 ) ) ;
#213 = ORIENTED_EDGE ( 'NONE', *, *, #349, .T. ) ;
#214 = ORIENTED_EDGE ( 'NONE', *, *, #19, .F. ) ;
#215 = ADVANCED_FACE ( 'NONE', ( #318 ), #261, .F. ) ;
#216 = ORIENTED_EDGE ( 'NONE', *, *, #142, .F. ) ;
#217 =( NAMED_UNIT ( * ) SI_UNIT ( $, .STERADIAN. ) SOLID_ANGLE_UNIT ( ) );
#218 = ORIENTED_EDGE ( 'NONE', *, *, #56, .T. ) ;
#219 = AXIS2_PLACEMENT_3D ( 'NONE', #228, #108, #227 ) ;
#220 = AXIS2_PLACEMENT_3D ( 'NONE', #348, #289, #293 ) ;
#221 = ADVANCED_FACE ( 'NONE', ( #233 ), #40, .T. ) ;
#222 = COORDINATED_UNIVERSAL_TIME_OFFSET ( 1, 0, .AHEAD. ) ;
#223 = ORIENTED_EDGE ( 'NONE', *, *, #256, .T. ) ;
#224 = VERTEX_POINT ( 'NONE', #68 ) ;
#225 = DIRECTION ( 'NONE',  ( -2.468850131082255088E-15, 0.7071067811865504593, -0.7071067811865445751 ) ) ;
#226 = EDGE_CURVE ( 'NONE', #16, #187, #300, .T. ) ;
#227 = DIRECTION ( 'NONE',  ( -4.275831445896958607E-31, -1.000000000000000000, -1.224646799147353207E-16 ) ) ;
#228 = CARTESIAN_POINT ( 'NONE',  ( 2.513866563967056016E-13, -8.817456953860941711E-15, 72.00000000000000000 ) ) ;
#229 = CARTESIAN_POINT ( 'NONE',  ( 8.379555213223520053E-14, 0.000000000000000000, 24.00000000000000000 ) ) ;
#230 = CIRCLE ( 'NONE', #198, 3.999999999999988898 ) ;
#231 = EDGE_CURVE ( 'NONE', #247, #133, #207, .T. ) ;
#232 = CARTESIAN_POINT ( 'NONE',  ( 6.123233995736741630E-16, -4.999999999999997335, -6.123233995736784032E-16 ) ) ;
#233 = FACE_OUTER_BOUND ( 'NONE', #25, .T. ) ;
#234 = CARTESIAN_POINT ( 'NONE',  ( 2.478951750578624304E-13, -8.694992273946206563E-15, 71.00000000000000000 ) ) ;
#235 = CIRCLE ( 'NONE', #140, 4.950000000000000178 ) ;
#236 = DIRECTION ( 'NONE',  ( 3.491481338843133355E-15, -0.000000000000000000, 1.000000000000000000 ) ) ;
#237 = LINE ( 'NONE', #38, #191 ) ;
#238 = PERSON_AND_ORGANIZATION ( #114, #340 ) ;
#239 = AXIS2_PLACEMENT_3D ( 'NONE', #255, #141, #313 ) ;
#240 = PERSON_AND_ORGANIZATION ( #114, #340 ) ;
#241 = ORIENTED_EDGE ( 'NONE', *, *, #19, .T. ) ;
#242 = VERTEX_POINT ( 'NONE', #320 ) ;
#243 = DATE_AND_TIME ( #130, #47 ) ;
#244 = EDGE_LOOP ( 'NONE', ( #214, #77, #218, #321 ) ) ;
#245 = EDGE_CURVE ( 'NONE', #106, #276, #150, .T. ) ;
#246 = COORDINATED_UNIVERSAL_TIME_OFFSET ( 1, 0, .AHEAD. ) ;
#247 = VERTEX_POINT ( 'NONE', #15 ) ;
#248 = CC_DESIGN_APPROVAL ( #9, ( #208 ) ) ;
#249 = VERTEX_POINT ( 'NONE', #124 ) ;
#250 = PRODUCT_DEFINITION_SHAPE ( 'NONE', 'NONE',  #51 ) ;
#251 = DIRECTION ( 'NONE',  ( 1.000000000000000000, 0.000000000000000000, -3.491481338843133355E-15 ) ) ;
#252 = DIRECTION ( 'NONE',  ( -3.491481338843133355E-15, 0.000000000000000000, -1.000000000000000000 ) ) ;
#253 = LOCAL_TIME ( 15, 46, 37.00000000000000000, #246 ) ;
#254 = CARTESIAN_POINT ( 'NONE',  ( 0.000000000000000000, 0.000000000000000000, 0.000000000000000000 ) ) ;
#255 = CARTESIAN_POINT ( 'NONE',  ( 8.428123209807733522E-14, -2.956187677958626025E-15, 24.13910427085457755 ) ) ;
#256 = EDGE_CURVE ( 'NONE', #224, #334, #230, .T. ) ;
#257 = LINE ( 'NONE', #7, #305 ) ;
#258 = VECTOR ( 'NONE', #131, 999.9999999999998863 ) ;
#259 = AXIS2_PLACEMENT_3D ( 'NONE', #180, #35, #174 ) ;
#260 = DIRECTION ( 'NONE',  ( 0.000000000000000000, 1.000000000000000000, 0.000000000000000000 ) ) ;
#261 = PLANE ( 'NONE',  #8 ) ;
#262 = ADVANCED_FACE ( 'NONE', ( #90 ), #205, .T. ) ;
#263 = DIRECTION ( 'NONE',  ( 3.491481338843133355E-15, -0.000000000000000000, 1.000000000000000000 ) ) ;
#264 = DESIGN_CONTEXT ( 'detailed design', #204, 'design' ) ;
#265 = AXIS2_PLACEMENT_3D ( 'NONE', #30, #281, #59 ) ;
#266 = CARTESIAN_POINT ( 'NONE',  ( 2.513866563967056016E-13, -8.817456953860941711E-15, 72.00000000000000000 ) ) ;
#267 = CARTESIAN_POINT ( 'NONE',  ( 8.379555213223520053E-14, -2.939152317953647894E-15, 24.00000000000000000 ) ) ;
#268 = ORIENTED_EDGE ( 'NONE', *, *, #175, .T. ) ;
#269 = EDGE_CURVE ( 'NONE', #249, #247, #235, .T. ) ;
#270 = EDGE_LOOP ( 'NONE', ( #136, #357, #195, #69 ) ) ;
#271 = COORDINATED_UNIVERSAL_TIME_OFFSET ( 1, 0, .AHEAD. ) ;
#272 = ORIENTED_EDGE ( 'NONE', *, *, #269, .T. ) ;
#273 = DIRECTION ( 'NONE',  ( 0.000000000000000000, 0.000000000000000000, 1.000000000000000000 ) ) ;
#274 = LINE ( 'NONE', #22, #258 ) ;
#275 = APPROVAL_STATUS ( 'not_yet_approved' ) ;
#276 = VERTEX_POINT ( 'NONE', #63 ) ;
#277 = DATE_TIME_ROLE ( 'creation_date' ) ;
#278 = EDGE_LOOP ( 'NONE', ( #46, #156, #303, #161 ) ) ;
#279 = CIRCLE ( 'NONE', #323, 4.949999999999997513 ) ;
#280 = CIRCLE ( 'NONE', #165, 4.950000000000000178 ) ;
#281 = DIRECTION ( 'NONE',  ( -3.491481338843133355E-15, 1.224646799147349263E-16, -1.000000000000000000 ) ) ;
#282 = FACE_OUTER_BOUND ( 'NONE', #297, .T. ) ;
#283 = LINE ( 'NONE', #232, #29 ) ;
#284 = AXIS2_PLACEMENT_3D ( 'NONE', #2, #252, #112 ) ;
#285 = APPROVAL_PERSON_ORGANIZATION ( #104, #9, #23 ) ;
#286 = DIRECTION ( 'NONE',  ( 4.275831445896958607E-31, 1.000000000000000000, 1.224646799147353207E-16 ) ) ;
#287 = EDGE_CURVE ( 'NONE', #334, #224, #347, .T. ) ;
#288 = FACE_OUTER_BOUND ( 'NONE', #244, .T. ) ;
#289 = DIRECTION ( 'NONE',  ( 3.491481338843133355E-15, -1.224646799147353207E-16, 1.000000000000000000 ) ) ;
#290 = AXIS2_PLACEMENT_3D ( 'NONE', #50, #61, #84 ) ;
#291 = CARTESIAN_POINT ( 'NONE',  ( 0.000000000000000000, 0.000000000000000000, 0.000000000000000000 ) ) ;
#292 = FACE_OUTER_BOUND ( 'NONE', #270, .T. ) ;
#293 = DIRECTION ( 'NONE',  ( 0.000000000000000000, -1.000000000000000000, 0.000000000000000000 ) ) ;
#294 = LOCAL_TIME ( 15, 46, 37.00000000000000000, #222 ) ;
#295 = CARTESIAN_POINT ( 'NONE',  ( 0.000000000000000000, 0.000000000000000000, 0.000000000000000000 ) ) ;
#296 = ORIENTED_EDGE ( 'NONE', *, *, #231, .F. ) ;
#297 = EDGE_LOOP ( 'NONE', ( #301, #241, #332, #189 ) ) ;
#298 = APPROVAL_DATE_TIME ( #73, #137 ) ;
#299 = EDGE_LOOP ( 'NONE', ( #107, #49 ) ) ;
#300 = CIRCLE ( 'NONE', #145, 4.950000000000000178 ) ;
#301 = ORIENTED_EDGE ( 'NONE', *, *, #226, .F. ) ;
#302 = APPROVAL_STATUS ( 'not_yet_approved' ) ;
#303 = ORIENTED_EDGE ( 'NONE', *, *, #123, .T. ) ;
#304 = EDGE_LOOP ( 'NONE', ( #268, #79 ) ) ;
#305 = VECTOR ( 'NONE', #117, 1000.000000000000000 ) ;
#306 = CARTESIAN_POINT ( 'NONE',  ( 8.379555213223520053E-14, 4.949999999999997513, 24.00000000000000000 ) ) ;
#307 = DIRECTION ( 'NONE',  ( 3.491481338843133355E-15, -0.000000000000000000, 1.000000000000000000 ) ) ;
#308 = FACE_OUTER_BOUND ( 'NONE', #43, .T. ) ;
#309 = EDGE_CURVE ( 'NONE', #224, #329, #95, .T. ) ;
#310 = DIRECTION ( 'NONE',  ( 3.491481338843133355E-15, -1.224646799147353207E-16, 1.000000000000000000 ) ) ;
#311 = CIRCLE ( 'NONE', #239, 4.999999999999994671 ) ;
#312 = AXIS2_PLACEMENT_3D ( 'NONE', #28, #310, #139 ) ;
#313 = DIRECTION ( 'NONE',  ( 0.000000000000000000, 1.000000000000000000, 0.000000000000000000 ) ) ;
#314 = ADVANCED_BREP_SHAPE_REPRESENTATION ( '57015', ( #167, #182, #41 ), #127 ) ;
#315 = CARTESIAN_POINT ( 'NONE',  ( 0.000000000000000000, 0.000000000000000000, 0.000000000000000000 ) ) ;
#316 = DIRECTION ( 'NONE',  ( 3.491481338843133355E-15, -0.000000000000000000, 1.000000000000000000 ) ) ;
#317 = APPROVAL_PERSON_ORGANIZATION ( #240, #336, #188 ) ;
#318 = FACE_OUTER_BOUND ( 'NONE', #299, .T. ) ;
#319 = CYLINDRICAL_SURFACE ( 'NONE', #81, 4.999999999999997335 ) ;
#320 = CARTESIAN_POINT ( 'NONE',  ( 1.660882035779698891E-13, 4.999999999999988454, 71.00000000000000000 ) ) ;
#321 = ORIENTED_EDGE ( 'NONE', *, *, #245, .T. ) ;
#322 = CONICAL_SURFACE ( 'NONE', #13, 4.950000000000000178, 0.3450620389298179047 ) ;
#323 = AXIS2_PLACEMENT_3D ( 'NONE', #82, #307, #57 ) ;
#324 = PERSON_AND_ORGANIZATION_ROLE ( 'design_owner' ) ;
#325 = COORDINATED_UNIVERSAL_TIME_OFFSET ( 1, 0, .AHEAD. ) ;
#326 = ORIENTED_EDGE ( 'NONE', *, *, #62, .F. ) ;
#327 = CC_DESIGN_PERSON_AND_ORGANIZATION_ASSIGNMENT ( #158, #76, ( #208 ) ) ;
#328 = DATE_AND_TIME ( #162, #294 ) ;
#329 = VERTEX_POINT ( 'NONE', #64 ) ;
#330 = AXIS2_PLACEMENT_3D ( 'NONE', #254, #80, #251 ) ;
#331 = PERSON_AND_ORGANIZATION ( #114, #340 ) ;
#332 = ORIENTED_EDGE ( 'NONE', *, *, #142, .T. ) ;
#333 = APPLICATION_PROTOCOL_DEFINITION ( 'international standard', 'config_control_design', 1994, #157 ) ;
#334 = VERTEX_POINT ( 'NONE', #178 ) ;
#335 = ORIENTED_EDGE ( 'NONE', *, *, #231, .T. ) ;
#336 = APPROVAL ( #302, 'UNSPECIFIED' ) ;
#337 = APPROVAL_DATE_TIME ( #362, #9 ) ;
#338 = AXIS2_PLACEMENT_3D ( 'NONE', #306, #55, #286 ) ;
#339 = DIRECTION ( 'NONE',  ( 3.491481338843133355E-15, -0.000000000000000000, 1.000000000000000000 ) ) ;
#340 = ORGANIZATION ( 'UNSPECIFIED', 'UNSPECIFIED', '' ) ;
#341 = DIRECTION ( 'NONE',  ( -3.491481338843133355E-15, 1.224646799147349263E-16, -1.000000000000000000 ) ) ;
#342 = CARTESIAN_POINT ( 'NONE',  ( 2.478951750578624304E-13, 4.999999999999988454, 71.00000000000000000 ) ) ;
#343 = FACE_OUTER_BOUND ( 'NONE', #304, .T. ) ;
#344 = DIRECTION ( 'NONE',  ( 4.275831445896959482E-31, 1.000000000000000000, 1.224646799147353207E-16 ) ) ;
#345 = ADVANCED_FACE ( 'NONE', ( #149 ), #319, .T. ) ;
#346 = DIRECTION ( 'NONE',  ( 1.000000000000000000, 0.000000000000000000, -3.504491870660216954E-15 ) ) ;
#347 = CIRCLE ( 'NONE', #220, 3.999999999999988898 ) ;
#348 = CARTESIAN_POINT ( 'NONE',  ( 2.513866563967056016E-13, -8.817456953860941711E-15, 72.00000000000000000 ) ) ;
#349 = EDGE_CURVE ( 'NONE', #242, #276, #237, .T. ) ;
#350 = PERSON_AND_ORGANIZATION_ROLE ( 'creator' ) ;
#351 = APPROVAL_DATE_TIME ( #328, #336 ) ;
#352 = CARTESIAN_POINT ( 'NONE',  ( 8.464765389773208849E-14, 4.949999999999997513, 24.00000000000000000 ) ) ;
#353 = CC_DESIGN_PERSON_AND_ORGANIZATION_ASSIGNMENT ( #358, #101, ( #51 ) ) ;
#354 = DIRECTION ( 'NONE',  ( 1.000000000000000000, 0.000000000000000000, 0.000000000000000000 ) ) ;
#355 = EDGE_LOOP ( 'NONE', ( #102, #105, #185, #296 ) ) ;
#356 = DATE_TIME_ROLE ( 'classification_date' ) ;
#357 = ORIENTED_EDGE ( 'NONE', *, *, #309, .T. ) ;
#358 = PERSON_AND_ORGANIZATION ( #114, #340 ) ;
#359 = AXIS2_PLACEMENT_3D ( 'NONE', #10, #12, #346 ) ;
#360 = ORIENTED_EDGE ( 'NONE', *, *, #287, .T. ) ;
#361 = PRODUCT_RELATED_PRODUCT_CATEGORY ( 'detail', '', ( #166 ) ) ;
#362 = DATE_AND_TIME ( #85, #253 ) ;
#363 = ORIENTED_EDGE ( 'NONE', *, *, #171, .F. ) ;
ENDSEC;
END-ISO-10303-21;
