ISO-10303-21;
HEADER;
FILE_DESCRIPTION (( 'STEP AP203' ),
    '1' );
FILE_NAME ('57014.step',
    '2024-04-04T13:46:36',
    ( '' ),
    ( '' ),
    'SwSTEP 2.0',
    'SolidWorks 2022',
    '' );
FILE_SCHEMA (( 'CONFIG_CONTROL_DESIGN' ));
ENDSEC;

DATA;
#1 = CARTESIAN_POINT ( 'NONE',  ( 6.808388610744110674E-14, -2.388061258337338939E-15, 19.50000000000000000 ) ) ;
#2 = FACE_OUTER_BOUND ( 'NONE', #289, .T. ) ;
#3 = SECURITY_CLASSIFICATION ( '', '', #53 ) ;
#4 = ADVANCED_FACE ( 'NONE', ( #102 ), #25, .T. ) ;
#5 = FACE_OUTER_BOUND ( 'NONE', #152, .T. ) ;
#6 = DIRECTION ( 'NONE',  ( -4.275831445896958607E-31, -1.000000000000000000, -1.224646799147353207E-16 ) ) ;
#7 = CARTESIAN_POINT ( 'NONE',  ( 6.808388610744110674E-14, -2.388061258337338939E-15, 19.50000000000000000 ) ) ;
#8 = ORGANIZATION ( 'UNSPECIFIED', 'UNSPECIFIED', '' ) ;
#9 = ADVANCED_FACE ( 'NONE', ( #272 ), #285, .T. ) ;
#10 = DIRECTION ( 'NONE',  ( 1.000000000000000000, 0.000000000000000000, -3.491481338843133355E-15 ) ) ;
#11 = ORIENTED_EDGE ( 'NONE', *, *, #221, .T. ) ;
#12 = DIRECTION ( 'NONE',  ( 3.491481338843133355E-15, -0.000000000000000000, 1.000000000000000000 ) ) ;
#13 = ORIENTED_EDGE ( 'NONE', *, *, #240, .F. ) ;
#14 = ADVANCED_FACE ( 'NONE', ( #216 ), #156, .T. ) ;
#15 = CONICAL_SURFACE ( 'NONE', #32, 3.950000000000000178, 0.3450620389298099666 ) ;
#16 = LINE ( 'NONE', #201, #85 ) ;
#17 = ORIENTED_EDGE ( 'NONE', *, *, #226, .F. ) ;
#18 = APPROVAL_ROLE ( '' ) ;
#19 = ORIENTED_EDGE ( 'NONE', *, *, #58, .F. ) ;
#20 = DIRECTION ( 'NONE',  ( 4.275831445896958607E-31, 1.000000000000000000, 1.224646799147353207E-16 ) ) ;
#21 = ADVANCED_FACE ( 'NONE', ( #154 ), #183, .T. ) ;
#22 = DIRECTION ( 'NONE',  ( -3.491481338843133355E-15, 1.224646799147353207E-16, -1.000000000000000000 ) ) ;
#23 = AXIS2_PLACEMENT_3D ( 'NONE', #166, #250, #6 ) ;
#24 = PERSON_AND_ORGANIZATION ( #177, #8 ) ;
#25 = CYLINDRICAL_SURFACE ( 'NONE', #117, 3.949999999999998845 ) ;
#26 = ORIENTED_EDGE ( 'NONE', *, *, #354, .T. ) ;
#27 = APPROVAL_PERSON_ORGANIZATION ( #274, #362, #159 ) ;
#28 = ORIENTED_EDGE ( 'NONE', *, *, #75, .T. ) ;
#29 = DIRECTION ( 'NONE',  ( 3.491481338843133355E-15, -0.000000000000000000, 1.000000000000000000 ) ) ;
#30 = EDGE_CURVE ( 'NONE', #258, #346, #214, .T. ) ;
#31 = DIRECTION ( 'NONE',  ( 3.491481338843133355E-15, -0.000000000000000000, 1.000000000000000000 ) ) ;
#32 = AXIS2_PLACEMENT_3D ( 'NONE', #1, #251, #34 ) ;
#33 = CARTESIAN_POINT ( 'NONE',  ( 2.171701392760429326E-13, -7.617303090696538521E-15, 62.20000000000000995 ) ) ;
#34 = DIRECTION ( 'NONE',  ( 0.000000000000000000, -1.000000000000000000, 0.000000000000000000 ) ) ;
#35 = CIRCLE ( 'NONE', #338, 3.950000000000000178 ) ;
#36 = CYLINDRICAL_SURFACE ( 'NONE', #328, 3.949999999999998845 ) ;
#37 = CC_DESIGN_PERSON_AND_ORGANIZATION_ASSIGNMENT ( #247, #323, ( #110 ) ) ;
#38 = DIRECTION ( 'NONE',  ( 0.000000000000000000, -1.000000000000000000, 0.000000000000000000 ) ) ;
#39 = VECTOR ( 'NONE', #83, 1000.000000000000000 ) ;
#40 = LINE ( 'NONE', #120, #43 ) ;
#41 = PRODUCT_RELATED_PRODUCT_CATEGORY ( 'detail', '', ( #133 ) ) ;
#42 = APPLICATION_PROTOCOL_DEFINITION ( 'international standard', 'config_control_design', 1994, #71 ) ;
#43 = VECTOR ( 'NONE', #123, 1000.000000000000000 ) ;
#44 = DIRECTION ( 'NONE',  ( 3.491481338843133355E-15, -0.000000000000000000, 1.000000000000000000 ) ) ;
#45 = VERTEX_POINT ( 'NONE', #324 ) ;
#46 = DIRECTION ( 'NONE',  ( 0.000000000000000000, -1.000000000000000000, 0.000000000000000000 ) ) ;
#47 = EDGE_CURVE ( 'NONE', #270, #218, #211, .T. ) ;
#48 = DIRECTION ( 'NONE',  ( 1.000000000000000000, 0.000000000000000000, -3.513364001978344456E-15 ) ) ;
#49 = ORIENTED_EDGE ( 'NONE', *, *, #221, .F. ) ;
#50 = CONICAL_SURFACE ( 'NONE', #298, 3.999999999999998224, 0.7853981633974456145 ) ;
#51 = DIRECTION ( 'NONE',  ( -1.000000000000000000, 0.000000000000000000, 3.491481338843133355E-15 ) ) ;
#52 = ADVANCED_FACE ( 'NONE', ( #356 ), #245, .F. ) ;
#53 = SECURITY_CLASSIFICATION_LEVEL ( 'unclassified' ) ;
#54 = EDGE_LOOP ( 'NONE', ( #208, #322, #179, #297 ) ) ;
#55 = AXIS2_PLACEMENT_3D ( 'NONE', #60, #31, #140 ) ;
#56 = APPROVAL_PERSON_ORGANIZATION ( #178, #246, #18 ) ;
#57 = CARTESIAN_POINT ( 'NONE',  ( 6.856956607328324143E-14, -2.405096618342317464E-15, 19.63910427085458110 ) ) ;
#58 = EDGE_CURVE ( 'NONE', #138, #45, #160, .T. ) ;
#59 = FACE_OUTER_BOUND ( 'NONE', #276, .T. ) ;
#60 = CARTESIAN_POINT ( 'NONE',  ( 0.000000000000000000, 0.000000000000000000, 0.000000000000000000 ) ) ;
#61 = DIRECTION ( 'NONE',  ( -3.491481338843133355E-15, 1.224646799147345319E-16, -1.000000000000000000 ) ) ;
#62 = DIRECTION ( 'NONE',  ( 1.953992523340275827E-14, -1.000000000000000000, 0.000000000000000000 ) ) ;
#63 = AXIS2_PLACEMENT_3D ( 'NONE', #127, #22, #106 ) ;
#64 = DIRECTION ( 'NONE',  ( 1.000000000000000000, 0.000000000000000000, -3.513364001978345245E-15 ) ) ;
#65 = UNCERTAINTY_MEASURE_WITH_UNIT (LENGTH_MEASURE( 1.000000000000000082E-05 ), #261, 'distance_accuracy_value', 'NONE');
#66 = CC_DESIGN_APPROVAL ( #246, ( #110 ) ) ;
#67 = DIRECTION ( 'NONE',  ( -3.491481338843133355E-15, 1.224646799147353207E-16, -1.000000000000000000 ) ) ;
#68 = EDGE_LOOP ( 'NONE', ( #331, #94, #350, #363 ) ) ;
#69 = DIRECTION ( 'NONE',  ( -3.491481338843133355E-15, 1.224646799147353207E-16, -1.000000000000000000 ) ) ;
#70 = LOCAL_TIME ( 15, 46, 36.00000000000000000, #357 ) ;
#71 = APPLICATION_CONTEXT ( 'configuration controlled 3d designs of mechanical parts and assemblies' ) ;
#72 = AXIS2_PLACEMENT_3D ( 'NONE', #291, #103, #46 ) ;
#73 = APPROVAL_DATE_TIME ( #349, #246 ) ;
#74 = EDGE_LOOP ( 'NONE', ( #28, #292 ) ) ;
#75 = EDGE_CURVE ( 'NONE', #138, #210, #35, .T. ) ;
#76 = ORIENTED_EDGE ( 'NONE', *, *, #176, .F. ) ;
#77 = DATE_AND_TIME ( #290, #70 ) ;
#78 = VERTEX_POINT ( 'NONE', #253 ) ;
#79 = DIRECTION ( 'NONE',  ( 3.285674118869272465E-15, -0.3382550599108734568, 0.9410544694355854611 ) ) ;
#80 = DIRECTION ( 'NONE',  ( 3.491481338843133355E-15, -0.000000000000000000, 1.000000000000000000 ) ) ;
#81 = ADVANCED_FACE ( 'NONE', ( #2 ), #220, .T. ) ;
#82 = CARTESIAN_POINT ( 'NONE',  ( 6.808388610744110674E-14, -2.388061258337338939E-15, 19.50000000000000000 ) ) ;
#83 = DIRECTION ( 'NONE',  ( 3.491481338843133355E-15, -0.000000000000000000, 1.000000000000000000 ) ) ;
#84 = CC_DESIGN_PERSON_AND_ORGANIZATION_ASSIGNMENT ( #105, #135, ( #312 ) ) ;
#85 = VECTOR ( 'NONE', #314, 1000.000000000000227 ) ;
#86 = DIRECTION ( 'NONE',  ( -1.865174681370262988E-14, -1.000000000000000000, 0.000000000000000000 ) ) ;
#87 = CARTESIAN_POINT ( 'NONE',  ( 6.808388610744110674E-14, 0.000000000000000000, 19.50000000000000000 ) ) ;
#88 = DIRECTION ( 'NONE',  ( 3.491481338843133355E-15, -1.224646799147353207E-16, 1.000000000000000000 ) ) ;
#89 = EDGE_LOOP ( 'NONE', ( #13, #361, #108, #17 ) ) ;
#90 = CC_DESIGN_DATE_AND_TIME_ASSIGNMENT ( #244, #184, ( #3 ) ) ;
#91 = PLANE ( 'NONE',  #263 ) ;
#92 = ORIENTED_EDGE ( 'NONE', *, *, #163, .T. ) ;
#93 = DIRECTION ( 'NONE',  ( 0.000000000000000000, 0.000000000000000000, 1.000000000000000000 ) ) ;
#94 = ORIENTED_EDGE ( 'NONE', *, *, #240, .T. ) ;
#95 = MECHANICAL_CONTEXT ( 'NONE', #191, 'mechanical' ) ;
#96 = ORIENTED_EDGE ( 'NONE', *, *, #130, .T. ) ;
#97 = APPROVAL_STATUS ( 'not_yet_approved' ) ;
#98 = ADVANCED_FACE ( 'NONE', ( #197 ), #50, .T. ) ;
#99 = ORIENTED_EDGE ( 'NONE', *, *, #354, .F. ) ;
#100 = CC_DESIGN_APPROVAL ( #260, ( #3 ) ) ;
#101 = SHAPE_DEFINITION_REPRESENTATION ( #299, #153 ) ;
#102 = FACE_OUTER_BOUND ( 'NONE', #122, .T. ) ;
#103 = DIRECTION ( 'NONE',  ( 3.491481338843133355E-15, -1.224646799147353207E-16, 1.000000000000000000 ) ) ;
#104 = CC_DESIGN_PERSON_AND_ORGANIZATION_ASSIGNMENT ( #288, #209, ( #133 ) ) ;
#105 = PERSON_AND_ORGANIZATION ( #177, #8 ) ;
#106 = DIRECTION ( 'NONE',  ( 4.275831445896958607E-31, 1.000000000000000000, 1.224646799147353207E-16 ) ) ;
#107 = EDGE_LOOP ( 'NONE', ( #287, #119, #301, #262 ) ) ;
#108 = ORIENTED_EDGE ( 'NONE', *, *, #325, .T. ) ;
#109 = CARTESIAN_POINT ( 'NONE',  ( 1.433597113943219960E-13, -4.000000000000006217, 62.20000000000000995 ) ) ;
#110 = PRODUCT_DEFINITION ( 'UNKNOWN', '', #312, #347 ) ;
#111 = AXIS2_PLACEMENT_3D ( 'NONE', #57, #144, #254 ) ;
#112 = DIRECTION ( 'NONE',  ( -3.491481338843133355E-15, 1.224646799147345319E-16, -1.000000000000000000 ) ) ;
#113 = DIRECTION ( 'NONE',  ( 3.491481338843133355E-15, -0.000000000000000000, 1.000000000000000000 ) ) ;
#114 = DIRECTION ( 'NONE',  ( 0.000000000000000000, 1.000000000000000000, 0.000000000000000000 ) ) ;
#115 = AXIS2_PLACEMENT_3D ( 'NONE', #168, #278, #195 ) ;
#116 = CARTESIAN_POINT ( 'NONE',  ( 2.171701392760429326E-13, -7.617303090696538521E-15, 62.20000000000000995 ) ) ;
#117 = AXIS2_PLACEMENT_3D ( 'NONE', #219, #333, #48 ) ;
#118 = ADVANCED_FACE ( 'NONE', ( #5 ), #194, .F. ) ;
#119 = ORIENTED_EDGE ( 'NONE', *, *, #75, .F. ) ;
#120 = CARTESIAN_POINT ( 'NONE',  ( 4.898587196589394093E-16, -3.999999999999998224, -4.898587196589427620E-16 ) ) ;
#121 = CARTESIAN_POINT ( 'NONE',  ( 0.000000000000000000, 0.000000000000000000, 0.000000000000000000 ) ) ;
#122 = EDGE_LOOP ( 'NONE', ( #99, #158, #11, #237 ) ) ;
#123 = DIRECTION ( 'NONE',  ( -3.491481338843133355E-15, 1.224646799147353207E-16, -1.000000000000000000 ) ) ;
#124 = EDGE_CURVE ( 'NONE', #346, #218, #207, .T. ) ;
#125 = DIRECTION ( 'NONE',  ( 3.491481338843133355E-15, -0.000000000000000000, 1.000000000000000000 ) ) ;
#126 = ORIENTED_EDGE ( 'NONE', *, *, #293, .T. ) ;
#127 = CARTESIAN_POINT ( 'NONE',  ( 0.000000000000000000, 0.000000000000000000, 0.000000000000000000 ) ) ;
#128 = APPROVAL_DATE_TIME ( #161, #260 ) ;
#129 = DIRECTION ( 'NONE',  ( -2.382254525458723780E-15, -0.7071067811865454633, -0.7071067811865495711 ) ) ;
#130 = EDGE_CURVE ( 'NONE', #318, #78, #302, .T. ) ;
#131 = AXIS2_PLACEMENT_3D ( 'NONE', #134, #136, #51 ) ;
#132 = DATE_TIME_ROLE ( 'creation_date' ) ;
#133 = PRODUCT ( '57014', '57014', '', ( #95 ) ) ;
#134 = CARTESIAN_POINT ( 'NONE',  ( 6.808388610744110674E-14, 3.949999999999997957, 19.50000000000000000 ) ) ;
#135 = PERSON_AND_ORGANIZATION_ROLE ( 'creator' ) ;
#136 = DIRECTION ( 'NONE',  ( -3.491481338843133355E-15, 0.000000000000000000, -1.000000000000000000 ) ) ;
#137 = AXIS2_PLACEMENT_3D ( 'NONE', #165, #80, #172 ) ;
#138 = VERTEX_POINT ( 'NONE', #280 ) ;
#139 = CC_DESIGN_PERSON_AND_ORGANIZATION_ASSIGNMENT ( #24, #239, ( #3 ) ) ;
#140 = DIRECTION ( 'NONE',  ( 1.000000000000000000, 0.000000000000000000, -3.491481338843133355E-15 ) ) ;
#141 = CARTESIAN_POINT ( 'NONE',  ( 6.856956607328324143E-14, -2.405096618342317464E-15, 19.63910427085458110 ) ) ;
#142 = CARTESIAN_POINT ( 'NONE',  ( 6.808388610744110674E-14, 0.000000000000000000, 19.50000000000000000 ) ) ;
#143 = CARTESIAN_POINT ( 'NONE',  ( 3.950000000000066347, 0.000000000000000000, 19.49999999999998579 ) ) ;
#144 = DIRECTION ( 'NONE',  ( -3.491481338843133355E-15, 1.224646799147353207E-16, -1.000000000000000000 ) ) ;
#145 = CIRCLE ( 'NONE', #180, 3.950000000000000178 ) ;
#146 = CARTESIAN_POINT ( 'NONE',  ( 3.950000000000065459, 0.000000000000000000, 19.49999999999998579 ) ) ;
#147 = LINE ( 'NONE', #257, #330 ) ;
#148 = VECTOR ( 'NONE', #241, 1000.000000000000000 ) ;
#149 = VERTEX_POINT ( 'NONE', #340 ) ;
#150 = ORIENTED_EDGE ( 'NONE', *, *, #130, .F. ) ;
#151 = VECTOR ( 'NONE', #125, 1000.000000000000000 ) ;
#152 = EDGE_LOOP ( 'NONE', ( #76, #182 ) ) ;
#153 = ADVANCED_BREP_SHAPE_REPRESENTATION ( '57014', ( #171, #284, #304 ), #360 ) ;
#154 = FACE_OUTER_BOUND ( 'NONE', #68, .T. ) ;
#155 = CC_DESIGN_PERSON_AND_ORGANIZATION_ASSIGNMENT ( #236, #269, ( #312 ) ) ;
#156 = CYLINDRICAL_SURFACE ( 'NONE', #63, 3.999999999999998224 ) ;
#157 = LOCAL_TIME ( 15, 46, 36.00000000000000000, #213 ) ;
#158 = ORIENTED_EDGE ( 'NONE', *, *, #342, .T. ) ;
#159 = APPROVAL_ROLE ( '' ) ;
#160 = LINE ( 'NONE', #275, #267 ) ;
#161 = DATE_AND_TIME ( #352, #170 ) ;
#162 = CONICAL_SURFACE ( 'NONE', #186, 3.999999999999998224, 0.7853981633974456145 ) ;
#163 = EDGE_CURVE ( 'NONE', #270, #258, #169, .T. ) ;
#164 = CC_DESIGN_APPROVAL ( #362, ( #312 ) ) ;
#165 = CARTESIAN_POINT ( 'NONE',  ( 6.808388610744110674E-14, 0.000000000000000000, 19.50000000000000000 ) ) ;
#166 = CARTESIAN_POINT ( 'NONE',  ( 2.199633243471174140E-13, -7.715274834628325378E-15, 63.00000000000000000 ) ) ;
#167 = ADVANCED_FACE ( 'NONE', ( #310 ), #162, .T. ) ;
#168 = CARTESIAN_POINT ( 'NONE',  ( 2.199633243471174140E-13, -7.715274834628325378E-15, 63.00000000000000000 ) ) ;
#169 = CIRCLE ( 'NONE', #115, 3.200000000000014388 ) ;
#170 = LOCAL_TIME ( 15, 46, 36.00000000000000000, #300 ) ;
#171 = MANIFOLD_SOLID_BREP ( 'Corps-Déplacer/Copier1[1]', #228 ) ;
#172 = DIRECTION ( 'NONE',  ( 1.000000000000000000, 0.000000000000000000, -3.513364001978345245E-15 ) ) ;
#173 = ADVANCED_FACE ( 'NONE', ( #59 ), #15, .T. ) ;
#174 = AXIS2_PLACEMENT_3D ( 'NONE', #344, #88, #38 ) ;
#175 = CARTESIAN_POINT ( 'NONE',  ( 1.428698526746630807E-13, 3.999999999999990674, 62.20000000000000995 ) ) ;
#176 = EDGE_CURVE ( 'NONE', #192, #149, #320, .T. ) ;
#177 = PERSON ( 'UNSPECIFIED', 'UNSPECIFIED', 'UNSPECIFIED', ('UNSPECIFIED'), ('UNSPECIFIED'), ('UNSPECIFIED') ) ;
#178 = PERSON_AND_ORGANIZATION ( #177, #8 ) ;
#179 = ORIENTED_EDGE ( 'NONE', *, *, #124, .F. ) ;
#180 = AXIS2_PLACEMENT_3D ( 'NONE', #317, #44, #10 ) ;
#181 = DATE_AND_TIME ( #190, #222 ) ;
#182 = ORIENTED_EDGE ( 'NONE', *, *, #342, .F. ) ;
#183 = CYLINDRICAL_SURFACE ( 'NONE', #243, 3.999999999999998224 ) ;
#184 = DATE_TIME_ROLE ( 'classification_date' ) ;
#185 = ORIENTED_EDGE ( 'NONE', *, *, #176, .T. ) ;
#186 = AXIS2_PLACEMENT_3D ( 'NONE', #116, #61, #252 ) ;
#187 = APPROVAL_ROLE ( '' ) ;
#188 = CARTESIAN_POINT ( 'NONE',  ( 2.176599979957018732E-13, -4.000000000000006217, 62.20000000000000995 ) ) ;
#189 = AXIS2_PLACEMENT_3D ( 'NONE', #306, #225, #62 ) ;
#190 = CALENDAR_DATE ( 2024, 4, 4 ) ;
#191 = APPLICATION_CONTEXT ( 'configuration controlled 3d designs of mechanical parts and assemblies' ) ;
#192 = VERTEX_POINT ( 'NONE', #337 ) ;
#193 = EDGE_CURVE ( 'NONE', #218, #346, #311, .T. ) ;
#194 = PLANE ( 'NONE',  #348 ) ;
#195 = DIRECTION ( 'NONE',  ( 0.000000000000000000, -1.000000000000000000, 0.000000000000000000 ) ) ;
#196 = CARTESIAN_POINT ( 'NONE',  ( 2.171701392760429326E-13, -7.617303090696538521E-15, 62.20000000000000995 ) ) ;
#197 = FACE_OUTER_BOUND ( 'NONE', #54, .T. ) ;
#198 = CIRCLE ( 'NONE', #111, 3.999999999999994671 ) ;
#199 = LOCAL_TIME ( 15, 46, 36.00000000000000000, #296 ) ;
#200 = DIRECTION ( 'NONE',  ( 1.000000000000000000, 0.000000000000000000, -3.513364001978344456E-15 ) ) ;
#201 = CARTESIAN_POINT ( 'NONE',  ( 6.856762159310431184E-14, 3.949999999999997957, 19.50000000000000000 ) ) ;
#202 = DIRECTION ( 'NONE',  ( 4.275831445896958607E-31, 1.000000000000000000, 1.224646799147353207E-16 ) ) ;
#203 = AXIS2_PLACEMENT_3D ( 'NONE', #87, #12, #64 ) ;
#204 = CARTESIAN_POINT ( 'NONE',  ( 2.190076046592731920E-13, -3.200000000000022382, 63.00000000000000000 ) ) ;
#205 = ADVANCED_FACE ( 'NONE', ( #281 ), #36, .T. ) ;
#206 = APPLICATION_PROTOCOL_DEFINITION ( 'international standard', 'config_control_design', 1994, #191 ) ;
#207 = CIRCLE ( 'NONE', #189, 3.999999999999998224 ) ;
#208 = ORIENTED_EDGE ( 'NONE', *, *, #163, .F. ) ;
#209 = PERSON_AND_ORGANIZATION_ROLE ( 'design_owner' ) ;
#210 = VERTEX_POINT ( 'NONE', #313 ) ;
#211 = LINE ( 'NONE', #188, #235 ) ;
#212 = EDGE_CURVE ( 'NONE', #332, #45, #217, .T. ) ;
#213 = COORDINATED_UNIVERSAL_TIME_OFFSET ( 1, 0, .AHEAD. ) ;
#214 = LINE ( 'NONE', #353, #148 ) ;
#215 = PERSON_AND_ORGANIZATION ( #177, #8 ) ;
#216 = FACE_OUTER_BOUND ( 'NONE', #89, .T. ) ;
#217 = CIRCLE ( 'NONE', #359, 3.999999999999994671 ) ;
#218 = VERTEX_POINT ( 'NONE', #109 ) ;
#219 = CARTESIAN_POINT ( 'NONE',  ( 6.808388610744110674E-14, 0.000000000000000000, 19.50000000000000000 ) ) ;
#220 = PLANE ( 'NONE',  #23 ) ;
#221 = EDGE_CURVE ( 'NONE', #192, #318, #339, .T. ) ;
#222 = LOCAL_TIME ( 15, 46, 36.00000000000000000, #355 ) ;
#223 = DIRECTION ( 'NONE',  ( 1.000000000000000000, 0.000000000000000000, -3.491481338843133355E-15 ) ) ;
#224 = DIRECTION ( 'NONE',  ( -3.491481338843133355E-15, 1.224646799147353207E-16, -1.000000000000000000 ) ) ;
#225 = DIRECTION ( 'NONE',  ( -3.491481338843133355E-15, 1.224646799147345319E-16, -1.000000000000000000 ) ) ;
#226 = EDGE_CURVE ( 'NONE', #45, #332, #198, .T. ) ;
#227 = DIRECTION ( 'NONE',  ( -3.491481338843133355E-15, 1.224646799147353207E-16, -1.000000000000000000 ) ) ;
#228 = CLOSED_SHELL ( 'NONE', ( #98, #173, #21, #334, #81, #14, #9, #167 ) ) ;
#229 = ORIENTED_EDGE ( 'NONE', *, *, #193, .F. ) ;
#230 = CARTESIAN_POINT ( 'NONE',  ( 6.856956607328324143E-14, 3.999999999999992450, 19.63910427085458110 ) ) ;
#231 = EDGE_LOOP ( 'NONE', ( #96, #343 ) ) ;
#232 = EDGE_CURVE ( 'NONE', #210, #138, #238, .T. ) ;
#233 =( NAMED_UNIT ( * ) SI_UNIT ( $, .STERADIAN. ) SOLID_ANGLE_UNIT ( ) );
#234 = ORIENTED_EDGE ( 'NONE', *, *, #232, .F. ) ;
#235 = VECTOR ( 'NONE', #129, 1000.000000000000000 ) ;
#236 = PERSON_AND_ORGANIZATION ( #177, #8 ) ;
#237 = ORIENTED_EDGE ( 'NONE', *, *, #309, .F. ) ;
#238 = CIRCLE ( 'NONE', #283, 3.950000000000000178 ) ;
#239 = PERSON_AND_ORGANIZATION_ROLE ( 'classification_officer' ) ;
#240 = EDGE_CURVE ( 'NONE', #218, #45, #40, .T. ) ;
#241 = DIRECTION ( 'NONE',  ( -2.468850131082272049E-15, 0.7071067811865456854, -0.7071067811865493491 ) ) ;
#242 = DIRECTION ( 'NONE',  ( -3.491481338843133355E-15, 1.224646799147353207E-16, -1.000000000000000000 ) ) ;
#243 = AXIS2_PLACEMENT_3D ( 'NONE', #271, #242, #20 ) ;
#244 = DATE_AND_TIME ( #329, #199 ) ;
#245 = PLANE ( 'NONE',  #131 ) ;
#246 = APPROVAL ( #266, 'UNSPECIFIED' ) ;
#247 = PERSON_AND_ORGANIZATION ( #177, #8 ) ;
#248 = ORIENTED_EDGE ( 'NONE', *, *, #293, .F. ) ;
#249 = ORIENTED_EDGE ( 'NONE', *, *, #212, .T. ) ;
#250 = DIRECTION ( 'NONE',  ( 3.491481338843133355E-15, -1.224646799147353207E-16, 1.000000000000000000 ) ) ;
#251 = DIRECTION ( 'NONE',  ( 3.491481338843133355E-15, -1.224646799147353207E-16, 1.000000000000000000 ) ) ;
#252 = DIRECTION ( 'NONE',  ( 0.000000000000000000, 1.000000000000000000, 0.000000000000000000 ) ) ;
#253 = CARTESIAN_POINT ( 'NONE',  ( -3.949999999999930012, 4.837354856632042099E-16, 19.50000000000001421 ) ) ;
#254 = DIRECTION ( 'NONE',  ( 0.000000000000000000, 1.000000000000000000, 0.000000000000000000 ) ) ;
#255 = AXIS2_PLACEMENT_3D ( 'NONE', #33, #279, #86 ) ;
#256 = CC_DESIGN_SECURITY_CLASSIFICATION ( #3, ( #312 ) ) ;
#257 = CARTESIAN_POINT ( 'NONE',  ( 1.710332578358782742E-30, 3.999999999999998224, 4.898587196589410857E-16 ) ) ;
#258 = VERTEX_POINT ( 'NONE', #282 ) ;
#259 = LINE ( 'NONE', #286, #151 ) ;
#260 = APPROVAL ( #294, 'UNSPECIFIED' ) ;
#261 =( LENGTH_UNIT ( ) NAMED_UNIT ( * ) SI_UNIT ( .MILLI., .METRE. ) );
#262 = ORIENTED_EDGE ( 'NONE', *, *, #226, .T. ) ;
#263 = AXIS2_PLACEMENT_3D ( 'NONE', #316, #67, #202 ) ;
#264 = DIRECTION ( 'NONE',  ( 1.000000000000000000, 0.000000000000000000, 0.000000000000000000 ) ) ;
#265 = ORIENTED_EDGE ( 'NONE', *, *, #305, .T. ) ;
#266 = APPROVAL_STATUS ( 'not_yet_approved' ) ;
#267 = VECTOR ( 'NONE', #79, 1000.000000000000114 ) ;
#268 = EDGE_LOOP ( 'NONE', ( #185, #26, #150, #49 ) ) ;
#269 = PERSON_AND_ORGANIZATION_ROLE ( 'design_supplier' ) ;
#270 = VERTEX_POINT ( 'NONE', #204 ) ;
#271 = CARTESIAN_POINT ( 'NONE',  ( 0.000000000000000000, 0.000000000000000000, 0.000000000000000000 ) ) ;
#272 = FACE_OUTER_BOUND ( 'NONE', #107, .T. ) ;
#273 = CC_DESIGN_DATE_AND_TIME_ASSIGNMENT ( #181, #132, ( #110 ) ) ;
#274 = PERSON_AND_ORGANIZATION ( #177, #8 ) ;
#275 = CARTESIAN_POINT ( 'NONE',  ( 6.808388610744110674E-14, -3.950000000000002842, 19.50000000000000000 ) ) ;
#276 = EDGE_LOOP ( 'NONE', ( #234, #265, #249, #19 ) ) ;
#277 = DIRECTION ( 'NONE',  ( 0.000000000000000000, 1.000000000000000000, 0.000000000000000000 ) ) ;
#278 = DIRECTION ( 'NONE',  ( 3.491481338843133355E-15, -1.224646799147353207E-16, 1.000000000000000000 ) ) ;
#279 = DIRECTION ( 'NONE',  ( -3.491481338843133355E-15, 1.224646799147345319E-16, -1.000000000000000000 ) ) ;
#280 = CARTESIAN_POINT ( 'NONE',  ( 6.832672609036218040E-14, -3.950000000000002842, 19.50000000000000000 ) ) ;
#281 = FACE_OUTER_BOUND ( 'NONE', #268, .T. ) ;
#282 = CARTESIAN_POINT ( 'NONE',  ( 2.185667318115801607E-13, 3.200000000000006839, 63.00000000000000000 ) ) ;
#283 = AXIS2_PLACEMENT_3D ( 'NONE', #7, #227, #341 ) ;
#284 = MANIFOLD_SOLID_BREP ( 'Corps-Déplacer/Copier1[2]', #307 ) ;
#285 = CONICAL_SURFACE ( 'NONE', #72, 3.950000000000000178, 0.3450620389298099666 ) ;
#286 = CARTESIAN_POINT ( 'NONE',  ( -3.949999999999930900, 4.837354856632043085E-16, 19.50000000000001421 ) ) ;
#287 = ORIENTED_EDGE ( 'NONE', *, *, #305, .F. ) ;
#288 = PERSON_AND_ORGANIZATION ( #177, #8 ) ;
#289 = EDGE_LOOP ( 'NONE', ( #126, #92 ) ) ;
#290 = CALENDAR_DATE ( 2024, 4, 4 ) ;
#291 = CARTESIAN_POINT ( 'NONE',  ( 6.808388610744110674E-14, -2.388061258337338939E-15, 19.50000000000000000 ) ) ;
#292 = ORIENTED_EDGE ( 'NONE', *, *, #232, .T. ) ;
#293 = EDGE_CURVE ( 'NONE', #258, #270, #335, .T. ) ;
#294 = APPROVAL_STATUS ( 'not_yet_approved' ) ;
#295 = EDGE_LOOP ( 'NONE', ( #327, #248, #358, #229 ) ) ;
#296 = COORDINATED_UNIVERSAL_TIME_OFFSET ( 1, 0, .AHEAD. ) ;
#297 = ORIENTED_EDGE ( 'NONE', *, *, #30, .F. ) ;
#298 = AXIS2_PLACEMENT_3D ( 'NONE', #196, #112, #308 ) ;
#299 = PRODUCT_DEFINITION_SHAPE ( 'NONE', 'NONE',  #110 ) ;
#300 = COORDINATED_UNIVERSAL_TIME_OFFSET ( 1, 0, .AHEAD. ) ;
#301 = ORIENTED_EDGE ( 'NONE', *, *, #58, .T. ) ;
#302 = CIRCLE ( 'NONE', #137, 3.949999999999997957 ) ;
#303 = DIRECTION ( 'NONE',  ( -3.491481338843133355E-15, 1.224646799147353207E-16, -1.000000000000000000 ) ) ;
#304 = AXIS2_PLACEMENT_3D ( 'NONE', #121, #93, #264 ) ;
#305 = EDGE_CURVE ( 'NONE', #210, #332, #16, .T. ) ;
#306 = CARTESIAN_POINT ( 'NONE',  ( 2.171701392760429326E-13, -7.617303090696538521E-15, 62.20000000000000995 ) ) ;
#307 = CLOSED_SHELL ( 'NONE', ( #205, #4, #52, #118 ) ) ;
#308 = DIRECTION ( 'NONE',  ( 0.000000000000000000, 1.000000000000000000, 0.000000000000000000 ) ) ;
#309 = EDGE_CURVE ( 'NONE', #78, #318, #315, .T. ) ;
#310 = FACE_OUTER_BOUND ( 'NONE', #295, .T. ) ;
#311 = CIRCLE ( 'NONE', #255, 3.999999999999998224 ) ;
#312 = PRODUCT_DEFINITION_FORMATION_WITH_SPECIFIED_SOURCE ( 'ANY', '', #133, .NOT_KNOWN. ) ;
#313 = CARTESIAN_POINT ( 'NONE',  ( 6.881352319302324693E-14, 3.949999999999997957, 19.50000000000000000 ) ) ;
#314 = DIRECTION ( 'NONE',  ( 3.327098416510797865E-15, 0.3382550599108732903, 0.9410544694355855722 ) ) ;
#315 = CIRCLE ( 'NONE', #203, 3.949999999999997957 ) ;
#316 = CARTESIAN_POINT ( 'NONE',  ( 6.808388610744110674E-14, 3.949999999999997957, 19.50000000000000000 ) ) ;
#317 = CARTESIAN_POINT ( 'NONE',  ( 0.000000000000000000, 0.000000000000000000, 0.000000000000000000 ) ) ;
#318 = VERTEX_POINT ( 'NONE', #146 ) ;
#319 =( NAMED_UNIT ( * ) PLANE_ANGLE_UNIT ( ) SI_UNIT ( $, .RADIAN. ) );
#320 = CIRCLE ( 'NONE', #55, 3.950000000000000178 ) ;
#321 = APPROVAL_DATE_TIME ( #77, #362 ) ;
#322 = ORIENTED_EDGE ( 'NONE', *, *, #47, .T. ) ;
#323 = PERSON_AND_ORGANIZATION_ROLE ( 'creator' ) ;
#324 = CARTESIAN_POINT ( 'NONE',  ( 1.433597113943219960E-13, -3.999999999999997335, 19.63910427085458110 ) ) ;
#325 = EDGE_CURVE ( 'NONE', #346, #332, #147, .T. ) ;
#326 = CALENDAR_DATE ( 2024, 4, 4 ) ;
#327 = ORIENTED_EDGE ( 'NONE', *, *, #47, .F. ) ;
#328 = AXIS2_PLACEMENT_3D ( 'NONE', #142, #113, #200 ) ;
#329 = CALENDAR_DATE ( 2024, 4, 4 ) ;
#330 = VECTOR ( 'NONE', #69, 1000.000000000000000 ) ;
#331 = ORIENTED_EDGE ( 'NONE', *, *, #124, .T. ) ;
#332 = VERTEX_POINT ( 'NONE', #230 ) ;
#333 = DIRECTION ( 'NONE',  ( 3.491481338843133355E-15, -0.000000000000000000, 1.000000000000000000 ) ) ;
#334 = ADVANCED_FACE ( 'NONE', ( #345 ), #91, .T. ) ;
#335 = CIRCLE ( 'NONE', #174, 3.200000000000014388 ) ;
#336 = CARTESIAN_POINT ( 'NONE',  ( 2.137915722948478865E-31, 3.950000000000000178, 6.123233995736766036E-17 ) ) ;
#337 = CARTESIAN_POINT ( 'NONE',  ( 3.950000000000000178, 0.000000000000000000, -1.379135128843037675E-14 ) ) ;
#338 = AXIS2_PLACEMENT_3D ( 'NONE', #82, #303, #114 ) ;
#339 = LINE ( 'NONE', #143, #39 ) ;
#340 = CARTESIAN_POINT ( 'NONE',  ( -3.950000000000000178, 4.837354856632087459E-16, 1.379135128843037833E-14 ) ) ;
#341 = DIRECTION ( 'NONE',  ( 0.000000000000000000, 1.000000000000000000, 0.000000000000000000 ) ) ;
#342 = EDGE_CURVE ( 'NONE', #149, #192, #145, .T. ) ;
#343 = ORIENTED_EDGE ( 'NONE', *, *, #309, .T. ) ;
#344 = CARTESIAN_POINT ( 'NONE',  ( 2.199633243471174140E-13, -7.715274834628325378E-15, 63.00000000000000000 ) ) ;
#345 = FACE_OUTER_BOUND ( 'NONE', #74, .T. ) ;
#346 = VERTEX_POINT ( 'NONE', #175 ) ;
#347 = DESIGN_CONTEXT ( 'detailed design', #71, 'design' ) ;
#348 = AXIS2_PLACEMENT_3D ( 'NONE', #336, #29, #223 ) ;
#349 = DATE_AND_TIME ( #326, #157 ) ;
#350 = ORIENTED_EDGE ( 'NONE', *, *, #212, .F. ) ;
#351 = APPROVAL_PERSON_ORGANIZATION ( #215, #260, #187 ) ;
#352 = CALENDAR_DATE ( 2024, 4, 4 ) ;
#353 = CARTESIAN_POINT ( 'NONE',  ( 2.171701392760429326E-13, 3.999999999999990674, 62.20000000000000995 ) ) ;
#354 = EDGE_CURVE ( 'NONE', #149, #78, #259, .T. ) ;
#355 = COORDINATED_UNIVERSAL_TIME_OFFSET ( 1, 0, .AHEAD. ) ;
#356 = FACE_OUTER_BOUND ( 'NONE', #231, .T. ) ;
#357 = COORDINATED_UNIVERSAL_TIME_OFFSET ( 1, 0, .AHEAD. ) ;
#358 = ORIENTED_EDGE ( 'NONE', *, *, #30, .T. ) ;
#359 = AXIS2_PLACEMENT_3D ( 'NONE', #141, #224, #277 ) ;
#360 =( GEOMETRIC_REPRESENTATION_CONTEXT ( 3 ) GLOBAL_UNCERTAINTY_ASSIGNED_CONTEXT ( ( #65 ) ) GLOBAL_UNIT_ASSIGNED_CONTEXT ( ( #261, #319, #233 ) ) REPRESENTATION_CONTEXT ( 'NONE', 'WORKASPACE' ) );
#361 = ORIENTED_EDGE ( 'NONE', *, *, #193, .T. ) ;
#362 = APPROVAL ( #97, 'UNSPECIFIED' ) ;
#363 = ORIENTED_EDGE ( 'NONE', *, *, #325, .F. ) ;
ENDSEC;
END-ISO-10303-21;
