ISO-10303-21;
HEADER;
FILE_DESCRIPTION (( 'STEP AP203' ),
    '1' );
FILE_NAME ('57013.step',
    '2024-04-04T13:46:36',
    ( '' ),
    ( '' ),
    'SwSTEP 2.0',
    'SolidWorks 2022',
    '' );
FILE_SCHEMA (( 'CONFIG_CONTROL_DESIGN' ));
ENDSEC;

DATA;
#1 = CARTESIAN_POINT ( 'NONE',  ( 5.237222008264700033E-14, 0.000000000000000000, 15.00000000000000000 ) ) ;
#2 = EDGE_CURVE ( 'NONE', #188, #160, #256, .T. ) ;
#3 = DIRECTION ( 'NONE',  ( 3.285674118869263394E-15, -0.3382550599108810063, 0.9410544694355829076 ) ) ;
#4 = VECTOR ( 'NONE', #3, 1000.000000000000000 ) ;
#5 = AXIS2_PLACEMENT_3D ( 'NONE', #101, #317, #68 ) ;
#6 = EDGE_CURVE ( 'NONE', #12, #235, #180, .T. ) ;
#7 = DIRECTION ( 'NONE',  ( 3.491481338843133355E-15, -1.224646799147353207E-16, 1.000000000000000000 ) ) ;
#8 = ORIENTED_EDGE ( 'NONE', *, *, #2, .T. ) ;
#9 = ORIENTED_EDGE ( 'NONE', *, *, #302, .T. ) ;
#10 = CIRCLE ( 'NONE', #228, 2.999999999999996891 ) ;
#11 = ORIENTED_EDGE ( 'NONE', *, *, #118, .F. ) ;
#12 = VERTEX_POINT ( 'NONE', #274 ) ;
#13 = CC_DESIGN_PERSON_AND_ORGANIZATION_ASSIGNMENT ( #284, #141, ( #66 ) ) ;
#14 = ORIENTED_EDGE ( 'NONE', *, *, #69, .F. ) ;
#15 = EDGE_CURVE ( 'NONE', #71, #235, #361, .T. ) ;
#16 = CARTESIAN_POINT ( 'NONE',  ( 0.000000000000000000, 0.000000000000000000, 0.000000000000000000 ) ) ;
#17 = SHAPE_DEFINITION_REPRESENTATION ( #331, #146 ) ;
#18 = DIRECTION ( 'NONE',  ( 0.000000000000000000, 1.000000000000000000, 0.000000000000000000 ) ) ;
#19 = COORDINATED_UNIVERSAL_TIME_OFFSET ( 1, 0, .AHEAD. ) ;
#20 = DIRECTION ( 'NONE',  ( 3.491481338843133355E-15, -0.000000000000000000, 1.000000000000000000 ) ) ;
#21 = DATE_AND_TIME ( #206, #172 ) ;
#22 = CC_DESIGN_APPROVAL ( #175, ( #183 ) ) ;
#23 = DIRECTION ( 'NONE',  ( 3.491481338843133355E-15, -0.000000000000000000, 1.000000000000000000 ) ) ;
#24 = EDGE_CURVE ( 'NONE', #293, #71, #129, .T. ) ;
#25 = FACE_OUTER_BOUND ( 'NONE', #259, .T. ) ;
#26 = CARTESIAN_POINT ( 'NONE',  ( 5.237222008264700033E-14, -1.836970198721029589E-15, 15.00000000000000000 ) ) ;
#27 = EDGE_CURVE ( 'NONE', #44, #322, #56, .T. ) ;
#28 = CIRCLE ( 'NONE', #131, 2.399999999999999023 ) ;
#29 = CARTESIAN_POINT ( 'NONE',  ( 1.969195475107526960E-13, -6.907007947191071191E-15, 56.39999999999999147 ) ) ;
#30 = EDGE_CURVE ( 'NONE', #150, #119, #288, .T. ) ;
#31 = CARTESIAN_POINT ( 'NONE',  ( 1.969195475107526960E-13, -6.907007947191071191E-15, 56.39999999999999147 ) ) ;
#32 = AXIS2_PLACEMENT_3D ( 'NONE', #332, #189, #128 ) ;
#33 = VECTOR ( 'NONE', #161, 1000.000000000000000 ) ;
#34 = DIRECTION ( 'NONE',  ( -3.491481338843133750E-15, 1.224646799147345072E-16, -1.000000000000000000 ) ) ;
#35 = ADVANCED_FACE ( 'NONE', ( #155 ), #269, .F. ) ;
#36 = EDGE_LOOP ( 'NONE', ( #263, #181, #240, #11 ) ) ;
#37 = EDGE_LOOP ( 'NONE', ( #265, #289, #121, #67 ) ) ;
#38 = ORIENTED_EDGE ( 'NONE', *, *, #341, .F. ) ;
#39 = AXIS2_PLACEMENT_3D ( 'NONE', #16, #23, #353 ) ;
#40 = VECTOR ( 'NONE', #295, 1000.000000000000114 ) ;
#41 = CC_DESIGN_DATE_AND_TIME_ASSIGNMENT ( #52, #346, ( #183 ) ) ;
#42 = ORIENTED_EDGE ( 'NONE', *, *, #6, .T. ) ;
#43 = EDGE_CURVE ( 'NONE', #12, #293, #202, .T. ) ;
#44 = VERTEX_POINT ( 'NONE', #218 ) ;
#45 = APPROVAL_STATUS ( 'not_yet_approved' ) ;
#46 = CARTESIAN_POINT ( 'NONE',  ( 0.000000000000000000, 0.000000000000000000, 0.000000000000000000 ) ) ;
#47 = AXIS2_PLACEMENT_3D ( 'NONE', #287, #250, #145 ) ;
#48 = APPROVAL_ROLE ( '' ) ;
#49 = CLOSED_SHELL ( 'NONE', ( #73, #151, #35, #64 ) ) ;
#50 = DIRECTION ( 'NONE',  ( -3.491481338843133750E-15, 1.224646799147345072E-16, -1.000000000000000000 ) ) ;
#51 = DIRECTION ( 'NONE',  ( 3.491481338843133355E-15, -1.224646799147353207E-16, 1.000000000000000000 ) ) ;
#52 = DATE_AND_TIME ( #244, #55 ) ;
#53 = LINE ( 'NONE', #77, #328 ) ;
#54 = VECTOR ( 'NONE', #336, 1000.000000000000000 ) ;
#55 = LOCAL_TIME ( 15, 46, 36.00000000000000000, #270 ) ;
#56 = LINE ( 'NONE', #276, #40 ) ;
#57 = UNCERTAINTY_MEASURE_WITH_UNIT (LENGTH_MEASURE( 1.000000000000000082E-05 ), #164, 'distance_accuracy_value', 'NONE');
#58 = FACE_OUTER_BOUND ( 'NONE', #37, .T. ) ;
#59 = ADVANCED_FACE ( 'NONE', ( #25 ), #83, .T. ) ;
#60 = DIRECTION ( 'NONE',  ( 3.491481338843133355E-15, -0.000000000000000000, 1.000000000000000000 ) ) ;
#61 = LOCAL_TIME ( 15, 46, 36.00000000000000000, #220 ) ;
#62 = DIRECTION ( 'NONE',  ( 4.275831445896958607E-31, 1.000000000000000000, 1.224646799147353207E-16 ) ) ;
#63 = APPLICATION_PROTOCOL_DEFINITION ( 'international standard', 'config_control_design', 1994, #282 ) ;
#64 = ADVANCED_FACE ( 'NONE', ( #166 ), #327, .F. ) ;
#65 = CARTESIAN_POINT ( 'NONE',  ( 1.969195475107526960E-13, -6.907007947191071191E-15, 56.39999999999999147 ) ) ;
#66 = PRODUCT_DEFINITION ( 'UNKNOWN', '', #182, #306 ) ;
#67 = ORIENTED_EDGE ( 'NONE', *, *, #264, .F. ) ;
#68 = DIRECTION ( 'NONE',  ( 0.000000000000000000, 1.000000000000000000, 0.000000000000000000 ) ) ;
#69 = EDGE_CURVE ( 'NONE', #293, #12, #167, .T. ) ;
#70 = EDGE_LOOP ( 'NONE', ( #347, #294, #211, #168 ) ) ;
#71 = VERTEX_POINT ( 'NONE', #356 ) ;
#72 = APPROVAL_PERSON_ORGANIZATION ( #300, #286, #48 ) ;
#73 = ADVANCED_FACE ( 'NONE', ( #325 ), #80, .T. ) ;
#74 = EDGE_LOOP ( 'NONE', ( #260, #38, #234, #342 ) ) ;
#75 = APPROVAL_STATUS ( 'not_yet_approved' ) ;
#76 = ORIENTED_EDGE ( 'NONE', *, *, #103, .F. ) ;
#77 = CARTESIAN_POINT ( 'NONE',  ( 5.273349088839547028E-14, 2.949999999999998845, 15.00000000000000000 ) ) ;
#78 = DIRECTION ( 'NONE',  ( -3.491481338843133355E-15, 0.000000000000000000, -1.000000000000000000 ) ) ;
#79 = CONICAL_SURFACE ( 'NONE', #143, 2.999999999999996891, 0.7853981633974381760 ) ;
#80 = CYLINDRICAL_SURFACE ( 'NONE', #245, 2.949999999999999289 ) ;
#81 = DATE_AND_TIME ( #187, #61 ) ;
#82 = DIRECTION ( 'NONE',  ( -4.275831445896958607E-31, -1.000000000000000000, -1.224646799147353207E-16 ) ) ;
#83 = CYLINDRICAL_SURFACE ( 'NONE', #207, 2.999999999999996891 ) ;
#84 = CIRCLE ( 'NONE', #224, 2.999999999999996891 ) ;
#85 = ADVANCED_FACE ( 'NONE', ( #191 ), #148, .T. ) ;
#86 = PLANE ( 'NONE',  #310 ) ;
#87 = CARTESIAN_POINT ( 'NONE',  ( 5.261506006556806768E-14, -2.950000000000001954, 15.00000000000000000 ) ) ;
#88 = CARTESIAN_POINT ( 'NONE',  ( 0.000000000000000000, 0.000000000000000000, 0.000000000000000000 ) ) ;
#89 = CYLINDRICAL_SURFACE ( 'NONE', #47, 2.999999999999996891 ) ;
#90 = VECTOR ( 'NONE', #137, 1000.000000000000114 ) ;
#91 = ADVANCED_FACE ( 'NONE', ( #357 ), #299, .T. ) ;
#92 = DIRECTION ( 'NONE',  ( 0.000000000000000000, 0.000000000000000000, 1.000000000000000000 ) ) ;
#93 = EDGE_CURVE ( 'NONE', #160, #188, #303, .T. ) ;
#94 =( GEOMETRIC_REPRESENTATION_CONTEXT ( 3 ) GLOBAL_UNCERTAINTY_ASSIGNED_CONTEXT ( ( #57 ) ) GLOBAL_UNIT_ASSIGNED_CONTEXT ( ( #164, #201, #230 ) ) REPRESENTATION_CONTEXT ( 'NONE', 'WORKASPACE' ) );
#95 = EDGE_LOOP ( 'NONE', ( #345, #149, #147, #318 ) ) ;
#96 = ORIENTED_EDGE ( 'NONE', *, *, #144, .T. ) ;
#97 = EDGE_LOOP ( 'NONE', ( #8, #122 ) ) ;
#98 = APPROVAL_DATE_TIME ( #124, #286 ) ;
#99 = ORIENTED_EDGE ( 'NONE', *, *, #69, .T. ) ;
#100 = AXIS2_PLACEMENT_3D ( 'NONE', #26, #334, #249 ) ;
#101 = CARTESIAN_POINT ( 'NONE',  ( 5.237222008264700033E-14, -1.836970198721029589E-15, 15.00000000000000000 ) ) ;
#102 = CARTESIAN_POINT ( 'NONE',  ( -2.949999999999946887, 3.612708057484691604E-16, 15.00000000000001066 ) ) ;
#103 = EDGE_CURVE ( 'NONE', #160, #150, #53, .T. ) ;
#104 = DIRECTION ( 'NONE',  ( 3.491481338843133355E-15, -0.000000000000000000, 1.000000000000000000 ) ) ;
#105 = AXIS2_PLACEMENT_3D ( 'NONE', #301, #51, #82 ) ;
#106 = DATE_TIME_ROLE ( 'creation_date' ) ;
#107 = DIRECTION ( 'NONE',  ( -3.491481338843133355E-15, 1.224646799147353207E-16, -1.000000000000000000 ) ) ;
#108 = DIRECTION ( 'NONE',  ( -3.491481338843133355E-15, 1.224646799147353207E-16, -1.000000000000000000 ) ) ;
#109 = DIRECTION ( 'NONE',  ( -1.000000000000000000, 0.000000000000000000, 3.491481338843133355E-15 ) ) ;
#110 = LINE ( 'NONE', #170, #54 ) ;
#111 = DIRECTION ( 'NONE',  ( 0.000000000000000000, -1.000000000000000000, 0.000000000000000000 ) ) ;
#112 = CARTESIAN_POINT ( 'NONE',  ( 5.237222008264700033E-14, 2.949999999999998845, 15.00000000000000000 ) ) ;
#113 = PERSON_AND_ORGANIZATION ( #247, #255 ) ;
#114 = DIRECTION ( 'NONE',  ( 3.491481338843133355E-15, -1.224646799147353207E-16, 1.000000000000000000 ) ) ;
#115 = CC_DESIGN_APPROVAL ( #286, ( #182 ) ) ;
#116 = APPROVAL_STATUS ( 'not_yet_approved' ) ;
#117 = CARTESIAN_POINT ( 'NONE',  ( 1.979669919124056423E-13, 2.399999999999991918, 57.00000000000000000 ) ) ;
#118 = EDGE_CURVE ( 'NONE', #352, #210, #194, .T. ) ;
#119 = VERTEX_POINT ( 'NONE', #248 ) ;
#120 = CIRCLE ( 'NONE', #355, 2.399999999999999023 ) ;
#121 = ORIENTED_EDGE ( 'NONE', *, *, #30, .T. ) ;
#122 = ORIENTED_EDGE ( 'NONE', *, *, #93, .T. ) ;
#123 = ORIENTED_EDGE ( 'NONE', *, *, #264, .T. ) ;
#124 = DATE_AND_TIME ( #154, #275 ) ;
#125 = VECTOR ( 'NONE', #329, 1000.000000000000000 ) ;
#126 = ORIENTED_EDGE ( 'NONE', *, *, #198, .F. ) ;
#127 = AXIS2_PLACEMENT_3D ( 'NONE', #158, #107, #134 ) ;
#128 = DIRECTION ( 'NONE',  ( 1.000000000000000000, 0.000000000000000000, -3.491481338843133355E-15 ) ) ;
#129 = LINE ( 'NONE', #102, #125 ) ;
#130 = CARTESIAN_POINT ( 'NONE',  ( 5.237222008264700033E-14, 2.949999999999998845, 15.00000000000000000 ) ) ;
#131 = AXIS2_PLACEMENT_3D ( 'NONE', #339, #114, #199 ) ;
#132 = DATE_AND_TIME ( #266, #262 ) ;
#133 = CARTESIAN_POINT ( 'NONE',  ( 5.237222008264700033E-14, -2.950000000000001954, 15.00000000000000000 ) ) ;
#134 = DIRECTION ( 'NONE',  ( 0.000000000000000000, 1.000000000000000000, 0.000000000000000000 ) ) ;
#135 = ADVANCED_FACE ( 'NONE', ( #358 ), #86, .T. ) ;
#136 = PRODUCT ( '57013', '57013', '', ( #177 ) ) ;
#137 = DIRECTION ( 'NONE',  ( -2.468850131082289798E-15, 0.7071067811865405783, -0.7071067811865545671 ) ) ;
#138 = CARTESIAN_POINT ( 'NONE',  ( 5.237222008264700033E-14, 0.000000000000000000, 15.00000000000000000 ) ) ;
#139 = AXIS2_PLACEMENT_3D ( 'NONE', #88, #92, #205 ) ;
#140 = DIRECTION ( 'NONE',  ( 1.000000000000000000, 0.000000000000000000, -3.528251137579948177E-15 ) ) ;
#141 = PERSON_AND_ORGANIZATION_ROLE ( 'creator' ) ;
#142 = APPROVAL ( #116, 'UNSPECIFIED' ) ;
#143 = AXIS2_PLACEMENT_3D ( 'NONE', #31, #253, #203 ) ;
#144 = EDGE_CURVE ( 'NONE', #210, #322, #10, .T. ) ;
#145 = DIRECTION ( 'NONE',  ( 4.275831445896958607E-31, 1.000000000000000000, 1.224646799147353207E-16 ) ) ;
#146 = ADVANCED_BREP_SHAPE_REPRESENTATION ( '57013', ( #162, #153, #139 ), #94 ) ;
#147 = ORIENTED_EDGE ( 'NONE', *, *, #216, .F. ) ;
#148 = CONICAL_SURFACE ( 'NONE', #268, 2.999999999999996891, 0.7853981633974381760 ) ;
#149 = ORIENTED_EDGE ( 'NONE', *, *, #24, .T. ) ;
#150 = VERTEX_POINT ( 'NONE', #307 ) ;
#151 = ADVANCED_FACE ( 'NONE', ( #197 ), #251, .T. ) ;
#152 = EDGE_LOOP ( 'NONE', ( #208, #14 ) ) ;
#153 = MANIFOLD_SOLID_BREP ( 'Corps-Déplacer/Copier1[2]', #49 ) ;
#154 = CALENDAR_DATE ( 2024, 4, 4 ) ;
#155 = FACE_OUTER_BOUND ( 'NONE', #185, .T. ) ;
#156 = AXIS2_PLACEMENT_3D ( 'NONE', #281, #315, #312 ) ;
#157 = CLOSED_SHELL ( 'NONE', ( #85, #204, #59, #135, #91, #225, #326, #233 ) ) ;
#158 = CARTESIAN_POINT ( 'NONE',  ( 5.285790004848912871E-14, -1.854005558726008114E-15, 15.13910427085457577 ) ) ;
#159 = PERSON_AND_ORGANIZATION_ROLE ( 'design_supplier' ) ;
#160 = VERTEX_POINT ( 'NONE', #362 ) ;
#161 = DIRECTION ( 'NONE',  ( 3.491481338843133355E-15, -0.000000000000000000, 1.000000000000000000 ) ) ;
#162 = MANIFOLD_SOLID_BREP ( 'Corps-Déplacer/Copier1[1]', #157 ) ;
#163 = APPROVAL_ROLE ( '' ) ;
#164 =( LENGTH_UNIT ( ) NAMED_UNIT ( * ) SI_UNIT ( .MILLI., .METRE. ) );
#165 = EDGE_CURVE ( 'NONE', #44, #352, #120, .T. ) ;
#166 = FACE_OUTER_BOUND ( 'NONE', #152, .T. ) ;
#167 = CIRCLE ( 'NONE', #232, 2.950000000000000178 ) ;
#168 = ORIENTED_EDGE ( 'NONE', *, *, #302, .F. ) ;
#169 = DIRECTION ( 'NONE',  ( 0.000000000000000000, 1.000000000000000000, 0.000000000000000000 ) ) ;
#170 = CARTESIAN_POINT ( 'NONE',  ( 1.282749433769086356E-30, 2.999999999999996891, 3.673940397442055924E-16 ) ) ;
#171 = FACE_OUTER_BOUND ( 'NONE', #70, .T. ) ;
#172 = LOCAL_TIME ( 15, 46, 36.00000000000000000, #311 ) ;
#173 = DIRECTION ( 'NONE',  ( 3.491481338843133355E-15, -1.224646799147353207E-16, 1.000000000000000000 ) ) ;
#174 = APPROVAL_DATE_TIME ( #21, #142 ) ;
#175 = APPROVAL ( #75, 'UNSPECIFIED' ) ;
#176 = CARTESIAN_POINT ( 'NONE',  ( 5.237222008264700033E-14, -1.836970198721029589E-15, 15.00000000000000000 ) ) ;
#177 = MECHANICAL_CONTEXT ( 'NONE', #209, 'mechanical' ) ;
#178 = CONICAL_SURFACE ( 'NONE', #360, 2.950000000000000178, 0.3450620389298179047 ) ;
#179 = ORIENTED_EDGE ( 'NONE', *, *, #15, .T. ) ;
#180 = LINE ( 'NONE', #290, #33 ) ;
#181 = ORIENTED_EDGE ( 'NONE', *, *, #27, .T. ) ;
#182 = PRODUCT_DEFINITION_FORMATION_WITH_SPECIFIED_SOURCE ( 'ANY', '', #136, .NOT_KNOWN. ) ;
#183 = SECURITY_CLASSIFICATION ( '', '', #272 ) ;
#184 = ORIENTED_EDGE ( 'NONE', *, *, #24, .F. ) ;
#185 = EDGE_LOOP ( 'NONE', ( #351, #179 ) ) ;
#186 = DIRECTION ( 'NONE',  ( 1.000000000000000000, 0.000000000000000000, -3.528251137579948177E-15 ) ) ;
#187 = CALENDAR_DATE ( 2024, 4, 4 ) ;
#188 = VERTEX_POINT ( 'NONE', #87 ) ;
#189 = DIRECTION ( 'NONE',  ( 3.491481338843133355E-15, -0.000000000000000000, 1.000000000000000000 ) ) ;
#190 = CONICAL_SURFACE ( 'NONE', #100, 2.950000000000000178, 0.3450620389298179047 ) ;
#191 = FACE_OUTER_BOUND ( 'NONE', #36, .T. ) ;
#192 = PERSON_AND_ORGANIZATION ( #247, #255 ) ;
#193 = CARTESIAN_POINT ( 'NONE',  ( 5.237222008264700033E-14, -1.836970198721029589E-15, 15.00000000000000000 ) ) ;
#194 = LINE ( 'NONE', #277, #90 ) ;
#195 = EDGE_CURVE ( 'NONE', #322, #119, #223, .T. ) ;
#196 = DIRECTION ( 'NONE',  ( -3.491481338843133750E-15, 1.224646799147345072E-16, -1.000000000000000000 ) ) ;
#197 = FACE_OUTER_BOUND ( 'NONE', #291, .T. ) ;
#198 = EDGE_CURVE ( 'NONE', #210, #150, #110, .T. ) ;
#199 = DIRECTION ( 'NONE',  ( 0.000000000000000000, -1.000000000000000000, 0.000000000000000000 ) ) ;
#200 = DIRECTION ( 'NONE',  ( 2.486899575160350651E-14, -1.000000000000000000, 0.000000000000000000 ) ) ;
#201 =( NAMED_UNIT ( * ) PLANE_ANGLE_UNIT ( ) SI_UNIT ( $, .RADIAN. ) );
#202 = CIRCLE ( 'NONE', #39, 2.950000000000000178 ) ;
#203 = DIRECTION ( 'NONE',  ( 0.000000000000000000, 1.000000000000000000, 0.000000000000000000 ) ) ;
#204 = ADVANCED_FACE ( 'NONE', ( #58 ), #190, .T. ) ;
#205 = DIRECTION ( 'NONE',  ( 1.000000000000000000, 0.000000000000000000, 0.000000000000000000 ) ) ;
#206 = CALENDAR_DATE ( 2024, 4, 4 ) ;
#207 = AXIS2_PLACEMENT_3D ( 'NONE', #46, #304, #242 ) ;
#208 = ORIENTED_EDGE ( 'NONE', *, *, #43, .F. ) ;
#209 = APPLICATION_CONTEXT ( 'configuration controlled 3d designs of mechanical parts and assemblies' ) ;
#210 = VERTEX_POINT ( 'NONE', #226 ) ;
#211 = ORIENTED_EDGE ( 'NONE', *, *, #198, .T. ) ;
#212 = PERSON_AND_ORGANIZATION_ROLE ( 'classification_officer' ) ;
#213 = AXIS2_PLACEMENT_3D ( 'NONE', #138, #60, #140 ) ;
#214 = ORIENTED_EDGE ( 'NONE', *, *, #165, .T. ) ;
#215 = PERSON_AND_ORGANIZATION ( #247, #255 ) ;
#216 = EDGE_CURVE ( 'NONE', #235, #71, #320, .T. ) ;
#217 = ORIENTED_EDGE ( 'NONE', *, *, #30, .F. ) ;
#218 = CARTESIAN_POINT ( 'NONE',  ( 1.982976465481754348E-13, -2.400000000000005684, 57.00000000000000000 ) ) ;
#219 = DIRECTION ( 'NONE',  ( 1.000000000000000000, 0.000000000000000000, -3.491481338843132961E-15 ) ) ;
#220 = COORDINATED_UNIVERSAL_TIME_OFFSET ( 1, 0, .AHEAD. ) ;
#221 = CARTESIAN_POINT ( 'NONE',  ( 5.237222008264700033E-14, 0.000000000000000000, 15.00000000000000000 ) ) ;
#222 = DIRECTION ( 'NONE',  ( 3.327098416510789582E-15, 0.3382550599108808398, 0.9410544694355830186 ) ) ;
#223 = LINE ( 'NONE', #333, #316 ) ;
#224 = AXIS2_PLACEMENT_3D ( 'NONE', #65, #34, #363 ) ;
#225 = ADVANCED_FACE ( 'NONE', ( #171 ), #89, .T. ) ;
#226 = CARTESIAN_POINT ( 'NONE',  ( 1.248887237796209281E-13, 2.999999999999990230, 56.39999999999999147 ) ) ;
#227 = CARTESIAN_POINT ( 'NONE',  ( 1.990144363140586139E-13, -6.980486755139912911E-15, 57.00000000000000000 ) ) ;
#228 = AXIS2_PLACEMENT_3D ( 'NONE', #29, #196, #200 ) ;
#229 = PERSON_AND_ORGANIZATION ( #247, #255 ) ;
#230 =( NAMED_UNIT ( * ) SI_UNIT ( $, .STERADIAN. ) SOLID_ANGLE_UNIT ( ) );
#231 = ORIENTED_EDGE ( 'NONE', *, *, #15, .F. ) ;
#232 = AXIS2_PLACEMENT_3D ( 'NONE', #271, #104, #219 ) ;
#233 = ADVANCED_FACE ( 'NONE', ( #314 ), #79, .T. ) ;
#234 = ORIENTED_EDGE ( 'NONE', *, *, #118, .T. ) ;
#235 = VERTEX_POINT ( 'NONE', #257 ) ;
#236 = CC_DESIGN_PERSON_AND_ORGANIZATION_ASSIGNMENT ( #323, #159, ( #182 ) ) ;
#237 = ORIENTED_EDGE ( 'NONE', *, *, #2, .F. ) ;
#238 = PERSON_AND_ORGANIZATION_ROLE ( 'creator' ) ;
#239 = AXIS2_PLACEMENT_3D ( 'NONE', #1, #279, #278 ) ;
#240 = ORIENTED_EDGE ( 'NONE', *, *, #144, .F. ) ;
#241 = COORDINATED_UNIVERSAL_TIME_OFFSET ( 1, 0, .AHEAD. ) ;
#242 = DIRECTION ( 'NONE',  ( 4.275831445896958607E-31, 1.000000000000000000, 1.224646799147353207E-16 ) ) ;
#243 = AXIS2_PLACEMENT_3D ( 'NONE', #354, #20, #186 ) ;
#244 = CALENDAR_DATE ( 2024, 4, 4 ) ;
#245 = AXIS2_PLACEMENT_3D ( 'NONE', #221, #246, #330 ) ;
#246 = DIRECTION ( 'NONE',  ( 3.491481338843133355E-15, -0.000000000000000000, 1.000000000000000000 ) ) ;
#247 = PERSON ( 'UNSPECIFIED', 'UNSPECIFIED', 'UNSPECIFIED', ('UNSPECIFIED'), ('UNSPECIFIED'), ('UNSPECIFIED') ) ;
#248 = CARTESIAN_POINT ( 'NONE',  ( 1.252561178193650831E-13, -2.999999999999996447, 15.13910427085457577 ) ) ;
#249 = DIRECTION ( 'NONE',  ( 0.000000000000000000, -1.000000000000000000, 0.000000000000000000 ) ) ;
#250 = DIRECTION ( 'NONE',  ( -3.491481338843133355E-15, 1.224646799147353207E-16, -1.000000000000000000 ) ) ;
#251 = CYLINDRICAL_SURFACE ( 'NONE', #239, 2.949999999999999289 ) ;
#252 = FACE_OUTER_BOUND ( 'NONE', #344, .T. ) ;
#253 = DIRECTION ( 'NONE',  ( -3.491481338843133750E-15, 1.224646799147345072E-16, -1.000000000000000000 ) ) ;
#254 = CARTESIAN_POINT ( 'NONE',  ( 1.252561178193650578E-13, -3.000000000000003997, 56.39999999999999147 ) ) ;
#255 = ORGANIZATION ( 'UNSPECIFIED', 'UNSPECIFIED', '' ) ;
#256 = CIRCLE ( 'NONE', #5, 2.950000000000000178 ) ;
#257 = CARTESIAN_POINT ( 'NONE',  ( 2.950000000000051248, 0.000000000000000000, 14.99999999999998934 ) ) ;
#258 = CC_DESIGN_PERSON_AND_ORGANIZATION_ASSIGNMENT ( #113, #285, ( #136 ) ) ;
#259 = EDGE_LOOP ( 'NONE', ( #96, #273, #217, #126 ) ) ;
#260 = ORIENTED_EDGE ( 'NONE', *, *, #27, .F. ) ;
#261 = AXIS2_PLACEMENT_3D ( 'NONE', #193, #108, #169 ) ;
#262 = LOCAL_TIME ( 15, 46, 36.00000000000000000, #19 ) ;
#263 = ORIENTED_EDGE ( 'NONE', *, *, #165, .F. ) ;
#264 = EDGE_CURVE ( 'NONE', #188, #119, #338, .T. ) ;
#265 = ORIENTED_EDGE ( 'NONE', *, *, #93, .F. ) ;
#266 = CALENDAR_DATE ( 2024, 4, 4 ) ;
#267 = EDGE_LOOP ( 'NONE', ( #319, #214 ) ) ;
#268 = AXIS2_PLACEMENT_3D ( 'NONE', #298, #50, #18 ) ;
#269 = PLANE ( 'NONE',  #343 ) ;
#270 = COORDINATED_UNIVERSAL_TIME_OFFSET ( 1, 0, .AHEAD. ) ;
#271 = CARTESIAN_POINT ( 'NONE',  ( 0.000000000000000000, 0.000000000000000000, 0.000000000000000000 ) ) ;
#272 = SECURITY_CLASSIFICATION_LEVEL ( 'unclassified' ) ;
#273 = ORIENTED_EDGE ( 'NONE', *, *, #195, .T. ) ;
#274 = CARTESIAN_POINT ( 'NONE',  ( 2.950000000000000178, 0.000000000000000000, -1.029986994958724340E-14 ) ) ;
#275 = LOCAL_TIME ( 15, 46, 36.00000000000000000, #241 ) ;
#276 = CARTESIAN_POINT ( 'NONE',  ( 1.972869415504969014E-13, -3.000000000000003997, 56.39999999999999147 ) ) ;
#277 = CARTESIAN_POINT ( 'NONE',  ( 1.969195475107526960E-13, 2.999999999999990230, 56.39999999999999147 ) ) ;
#278 = DIRECTION ( 'NONE',  ( 1.000000000000000000, 0.000000000000000000, -3.528251137579947388E-15 ) ) ;
#279 = DIRECTION ( 'NONE',  ( 3.491481338843133355E-15, -0.000000000000000000, 1.000000000000000000 ) ) ;
#280 = CC_DESIGN_APPROVAL ( #142, ( #66 ) ) ;
#281 = CARTESIAN_POINT ( 'NONE',  ( 5.285790004848912871E-14, -1.854005558726008114E-15, 15.13910427085457577 ) ) ;
#282 = APPLICATION_CONTEXT ( 'configuration controlled 3d designs of mechanical parts and assemblies' ) ;
#283 = DIRECTION ( 'NONE',  ( 0.000000000000000000, -1.000000000000000000, 0.000000000000000000 ) ) ;
#284 = PERSON_AND_ORGANIZATION ( #247, #255 ) ;
#285 = PERSON_AND_ORGANIZATION_ROLE ( 'design_owner' ) ;
#286 = APPROVAL ( #45, 'UNSPECIFIED' ) ;
#287 = CARTESIAN_POINT ( 'NONE',  ( 0.000000000000000000, 0.000000000000000000, 0.000000000000000000 ) ) ;
#288 = CIRCLE ( 'NONE', #127, 2.999999999999994671 ) ;
#289 = ORIENTED_EDGE ( 'NONE', *, *, #103, .T. ) ;
#290 = CARTESIAN_POINT ( 'NONE',  ( 2.950000000000052136, 0.000000000000000000, 14.99999999999998934 ) ) ;
#291 = EDGE_LOOP ( 'NONE', ( #184, #99, #42, #231 ) ) ;
#292 = EDGE_CURVE ( 'NONE', #322, #210, #84, .T. ) ;
#293 = VERTEX_POINT ( 'NONE', #308 ) ;
#294 = ORIENTED_EDGE ( 'NONE', *, *, #292, .T. ) ;
#295 = DIRECTION ( 'NONE',  ( -2.382254525458741924E-15, -0.7071067811865403563, -0.7071067811865547892 ) ) ;
#296 = CC_DESIGN_DATE_AND_TIME_ASSIGNMENT ( #81, #106, ( #66 ) ) ;
#297 = APPROVAL_PERSON_ORGANIZATION ( #229, #142, #340 ) ;
#298 = CARTESIAN_POINT ( 'NONE',  ( 1.969195475107526960E-13, -6.907007947191071191E-15, 56.39999999999999147 ) ) ;
#299 = PLANE ( 'NONE',  #105 ) ;
#300 = PERSON_AND_ORGANIZATION ( #247, #255 ) ;
#301 = CARTESIAN_POINT ( 'NONE',  ( 1.990144363140586139E-13, -6.980486755139912911E-15, 57.00000000000000000 ) ) ;
#302 = EDGE_CURVE ( 'NONE', #119, #150, #348, .T. ) ;
#303 = CIRCLE ( 'NONE', #261, 2.950000000000000178 ) ;
#304 = DIRECTION ( 'NONE',  ( -3.491481338843133355E-15, 1.224646799147353207E-16, -1.000000000000000000 ) ) ;
#305 = DIRECTION ( 'NONE',  ( -3.491481338843133355E-15, 1.224646799147353207E-16, -1.000000000000000000 ) ) ;
#306 = DESIGN_CONTEXT ( 'detailed design', #282, 'design' ) ;
#307 = CARTESIAN_POINT ( 'NONE',  ( 5.285790004848912871E-14, 2.999999999999993339, 15.13910427085457577 ) ) ;
#308 = CARTESIAN_POINT ( 'NONE',  ( -2.950000000000000178, 3.612708057484724144E-16, 1.029986994958724498E-14 ) ) ;
#309 = DIRECTION ( 'NONE',  ( -3.491481338843133355E-15, 1.224646799147353207E-16, -1.000000000000000000 ) ) ;
#310 = AXIS2_PLACEMENT_3D ( 'NONE', #112, #309, #62 ) ;
#311 = COORDINATED_UNIVERSAL_TIME_OFFSET ( 1, 0, .AHEAD. ) ;
#312 = DIRECTION ( 'NONE',  ( 0.000000000000000000, 1.000000000000000000, 0.000000000000000000 ) ) ;
#313 = CC_DESIGN_PERSON_AND_ORGANIZATION_ASSIGNMENT ( #192, #212, ( #183 ) ) ;
#314 = FACE_OUTER_BOUND ( 'NONE', #74, .T. ) ;
#315 = DIRECTION ( 'NONE',  ( -3.491481338843133355E-15, 1.224646799147353207E-16, -1.000000000000000000 ) ) ;
#316 = VECTOR ( 'NONE', #305, 1000.000000000000000 ) ;
#317 = DIRECTION ( 'NONE',  ( -3.491481338843133355E-15, 1.224646799147353207E-16, -1.000000000000000000 ) ) ;
#318 = ORIENTED_EDGE ( 'NONE', *, *, #6, .F. ) ;
#319 = ORIENTED_EDGE ( 'NONE', *, *, #341, .T. ) ;
#320 = CIRCLE ( 'NONE', #213, 2.949999999999998845 ) ;
#321 = APPROVAL_DATE_TIME ( #132, #175 ) ;
#322 = VERTEX_POINT ( 'NONE', #254 ) ;
#323 = PERSON_AND_ORGANIZATION ( #247, #255 ) ;
#324 = PRODUCT_RELATED_PRODUCT_CATEGORY ( 'detail', '', ( #136 ) ) ;
#325 = FACE_OUTER_BOUND ( 'NONE', #95, .T. ) ;
#326 = ADVANCED_FACE ( 'NONE', ( #252 ), #178, .T. ) ;
#327 = PLANE ( 'NONE',  #32 ) ;
#328 = VECTOR ( 'NONE', #222, 999.9999999999998863 ) ;
#329 = DIRECTION ( 'NONE',  ( 3.491481338843133355E-15, -0.000000000000000000, 1.000000000000000000 ) ) ;
#330 = DIRECTION ( 'NONE',  ( 1.000000000000000000, 0.000000000000000000, -3.528251137579947388E-15 ) ) ;
#331 = PRODUCT_DEFINITION_SHAPE ( 'NONE', 'NONE',  #66 ) ;
#332 = CARTESIAN_POINT ( 'NONE',  ( -2.137915722948479303E-31, 2.950000000000000178, -6.123233995736767268E-17 ) ) ;
#333 = CARTESIAN_POINT ( 'NONE',  ( 3.673940397442043105E-16, -2.999999999999996891, -3.673940397442068250E-16 ) ) ;
#334 = DIRECTION ( 'NONE',  ( 3.491481338843133355E-15, -1.224646799147353207E-16, 1.000000000000000000 ) ) ;
#335 = APPLICATION_PROTOCOL_DEFINITION ( 'international standard', 'config_control_design', 1994, #209 ) ;
#336 = DIRECTION ( 'NONE',  ( -3.491481338843133355E-15, 1.224646799147353207E-16, -1.000000000000000000 ) ) ;
#337 = APPROVAL_PERSON_ORGANIZATION ( #215, #175, #163 ) ;
#338 = LINE ( 'NONE', #133, #4 ) ;
#339 = CARTESIAN_POINT ( 'NONE',  ( 1.990144363140586139E-13, -6.980486755139912911E-15, 57.00000000000000000 ) ) ;
#340 = APPROVAL_ROLE ( '' ) ;
#341 = EDGE_CURVE ( 'NONE', #352, #44, #28, .T. ) ;
#342 = ORIENTED_EDGE ( 'NONE', *, *, #292, .F. ) ;
#343 = AXIS2_PLACEMENT_3D ( 'NONE', #130, #78, #109 ) ;
#344 = EDGE_LOOP ( 'NONE', ( #76, #237, #123, #9 ) ) ;
#345 = ORIENTED_EDGE ( 'NONE', *, *, #43, .T. ) ;
#346 = DATE_TIME_ROLE ( 'classification_date' ) ;
#347 = ORIENTED_EDGE ( 'NONE', *, *, #195, .F. ) ;
#348 = CIRCLE ( 'NONE', #156, 2.999999999999994671 ) ;
#349 = PERSON_AND_ORGANIZATION ( #247, #255 ) ;
#350 = CC_DESIGN_SECURITY_CLASSIFICATION ( #183, ( #182 ) ) ;
#351 = ORIENTED_EDGE ( 'NONE', *, *, #216, .T. ) ;
#352 = VERTEX_POINT ( 'NONE', #117 ) ;
#353 = DIRECTION ( 'NONE',  ( 1.000000000000000000, 0.000000000000000000, -3.491481338843132961E-15 ) ) ;
#354 = CARTESIAN_POINT ( 'NONE',  ( 5.237222008264700033E-14, 0.000000000000000000, 15.00000000000000000 ) ) ;
#355 = AXIS2_PLACEMENT_3D ( 'NONE', #227, #173, #283 ) ;
#356 = CARTESIAN_POINT ( 'NONE',  ( -2.949999999999945999, 3.612708057484691111E-16, 15.00000000000001066 ) ) ;
#357 = FACE_OUTER_BOUND ( 'NONE', #267, .T. ) ;
#358 = FACE_OUTER_BOUND ( 'NONE', #97, .T. ) ;
#359 = CC_DESIGN_PERSON_AND_ORGANIZATION_ASSIGNMENT ( #349, #238, ( #182 ) ) ;
#360 = AXIS2_PLACEMENT_3D ( 'NONE', #176, #7, #111 ) ;
#361 = CIRCLE ( 'NONE', #243, 2.949999999999998845 ) ;
#362 = CARTESIAN_POINT ( 'NONE',  ( 5.297939248831440537E-14, 2.949999999999998845, 15.00000000000000000 ) ) ;
#363 = DIRECTION ( 'NONE',  ( -2.398081733190337812E-14, -1.000000000000000000, 0.000000000000000000 ) ) ;
ENDSEC;
END-ISO-10303-21;
