ISO-10303-21;
HEADER;
FILE_DESCRIPTION (( 'STEP AP214' ),
    '1' );
FILE_NAME ('57008.step',
    '2024-04-04T09:56:10',
    ( '' ),
    ( '' ),
    'SwSTEP 2.0',
    'SolidWorks 2022',
    '' );
FILE_SCHEMA (( 'AUTOMOTIVE_DESIGN' ));
ENDSEC;

DATA;
#1 = CARTESIAN_POINT ( 'NONE',  ( 8.379555213223520053E-14, 0.000000000000000000, 24.00000000000000000 ) ) ;
#2 = CIRCLE ( 'NONE', #186, 4.999999999999997335 ) ;
#3 = DIRECTION ( 'NONE',  ( -3.491481338843133355E-15, 1.224646799147349263E-16, -1.000000000000000000 ) ) ;
#4 = CARTESIAN_POINT ( 'NONE',  ( 4.950000000000081890, 0.000000000000000000, 23.99999999999998224 ) ) ;
#5 = ORIENTED_EDGE ( 'NONE', *, *, #286, .F. ) ;
#6 = EDGE_CURVE ( 'NONE', #234, #111, #293, .T. ) ;
#7 = DIRECTION ( 'NONE',  ( 0.000000000000000000, -1.000000000000000000, 0.000000000000000000 ) ) ;
#8 = FACE_OUTER_BOUND ( 'NONE', #79, .T. ) ;
#9 = CARTESIAN_POINT ( 'NONE',  ( -4.950000000000000178, 6.062001655779450773E-16, 1.728283262727351642E-14 ) ) ;
#10 = CONICAL_SURFACE ( 'NONE', #153, 4.950000000000000178, 0.3450620389298179047 ) ;
#11 = PRODUCT_DEFINITION_FORMATION_WITH_SPECIFIED_SOURCE ( 'ANY', '', #277, .NOT_KNOWN. ) ;
#12 = CARTESIAN_POINT ( 'NONE',  ( -4.949999999999915801, 6.062001655779397525E-16, 24.00000000000001776 ) ) ;
#13 = SURFACE_SIDE_STYLE ('',( #123 ) ) ;
#14 = CIRCLE ( 'NONE', #273, 4.950000000000000178 ) ;
#15 = AXIS2_PLACEMENT_3D ( 'NONE', #332, #268, #122 ) ;
#16 = EDGE_CURVE ( 'NONE', #314, #27, #201, .T. ) ;
#17 = LINE ( 'NONE', #12, #258 ) ;
#18 = DIRECTION ( 'NONE',  ( -3.491481338843133355E-15, 1.224646799147349263E-16, -1.000000000000000000 ) ) ;
#19 = ORIENTED_EDGE ( 'NONE', *, *, #194, .F. ) ;
#20 = SURFACE_SIDE_STYLE ('',( #302 ) ) ;
#21 = ORIENTED_EDGE ( 'NONE', *, *, #112, .T. ) ;
#22 = DIRECTION ( 'NONE',  ( 3.327098416510789582E-15, 0.3382550599108808398, 0.9410544694355830186 ) ) ;
#23 = EDGE_LOOP ( 'NONE', ( #236, #132 ) ) ;
#24 =( LENGTH_UNIT ( ) NAMED_UNIT ( * ) SI_UNIT ( .MILLI., .METRE. ) );
#25 = CARTESIAN_POINT ( 'NONE',  ( 8.428123209807733522E-14, -2.956187677958626025E-15, 24.13910427085457755 ) ) ;
#26 = EDGE_LOOP ( 'NONE', ( #271, #102 ) ) ;
#27 = VERTEX_POINT ( 'NONE', #4 ) ;
#28 = CIRCLE ( 'NONE', #56, 4.950000000000000178 ) ;
#29 = VERTEX_POINT ( 'NONE', #9 ) ;
#30 = ORIENTED_EDGE ( 'NONE', *, *, #112, .F. ) ;
#31 = CARTESIAN_POINT ( 'NONE',  ( 0.000000000000000000, 0.000000000000000000, 0.000000000000000000 ) ) ;
#32 = ORIENTED_EDGE ( 'NONE', *, *, #93, .T. ) ;
#33 = DIRECTION ( 'NONE',  ( 3.491481338843133355E-15, -1.224646799147353207E-16, 1.000000000000000000 ) ) ;
#34 = ADVANCED_FACE ( 'NONE', ( #322 ), #328, .T. ) ;
#35 = AXIS2_PLACEMENT_3D ( 'NONE', #275, #40, #248 ) ;
#36 = DIRECTION ( 'NONE',  ( -3.491481338843133355E-15, 1.224646799147353207E-16, -1.000000000000000000 ) ) ;
#37 = CONICAL_SURFACE ( 'NONE', #300, 4.950000000000000178, 0.3450620389298179047 ) ;
#38 = AXIS2_PLACEMENT_3D ( 'NONE', #243, #118, #326 ) ;
#39 = SHAPE_DEFINITION_REPRESENTATION ( #269, #42 ) ;
#40 = DIRECTION ( 'NONE',  ( -3.491481338843133355E-15, 1.224646799147353207E-16, -1.000000000000000000 ) ) ;
#41 = VERTEX_POINT ( 'NONE', #62 ) ;
#42 = ADVANCED_BREP_SHAPE_REPRESENTATION ( '57008', ( #304, #75, #38 ), #126 ) ;
#43 = EDGE_CURVE ( 'NONE', #279, #204, #282, .T. ) ;
#44 = PLANE ( 'NONE',  #308 ) ;
#45 =( GEOMETRIC_REPRESENTATION_CONTEXT ( 3 ) GLOBAL_UNCERTAINTY_ASSIGNED_CONTEXT ( ( #170 ) ) GLOBAL_UNIT_ASSIGNED_CONTEXT ( ( #255, #129, #77 ) ) REPRESENTATION_CONTEXT ( 'NONE', 'WORKASPACE' ) );
#46 = DIRECTION ( 'NONE',  ( 3.491481338843133355E-15, -0.000000000000000000, 1.000000000000000000 ) ) ;
#47 = ORIENTED_EDGE ( 'NONE', *, *, #212, .F. ) ;
#48 = EDGE_LOOP ( 'NONE', ( #52, #180, #51, #19 ) ) ;
#49 = AXIS2_PLACEMENT_3D ( 'NONE', #188, #168, #138 ) ;
#50 = CARTESIAN_POINT ( 'NONE',  ( 2.478951750578624304E-13, -8.694992273946206563E-15, 71.00000000000000000 ) ) ;
#51 = ORIENTED_EDGE ( 'NONE', *, *, #6, .T. ) ;
#52 = ORIENTED_EDGE ( 'NONE', *, *, #250, .F. ) ;
#53 = ORIENTED_EDGE ( 'NONE', *, *, #92, .T. ) ;
#54 = VERTEX_POINT ( 'NONE', #324 ) ;
#55 = COLOUR_RGB ( '',1.000000000000000000, 1.000000000000000000, 1.000000000000000000 ) ;
#56 = AXIS2_PLACEMENT_3D ( 'NONE', #96, #178, #149 ) ;
#57 = FACE_OUTER_BOUND ( 'NONE', #151, .T. ) ;
#58 = EDGE_LOOP ( 'NONE', ( #320, #281, #287, #249 ) ) ;
#59 = CARTESIAN_POINT ( 'NONE',  ( 2.478951750578624304E-13, 4.999999999999988454, 71.00000000000000000 ) ) ;
#60 = VERTEX_POINT ( 'NONE', #120 ) ;
#61 = DIRECTION ( 'NONE',  ( 3.491481338843133355E-15, -1.224646799147353207E-16, 1.000000000000000000 ) ) ;
#62 = CARTESIAN_POINT ( 'NONE',  ( 1.667005269775435396E-13, -4.999999999999997335, 24.13910427085457755 ) ) ;
#63 = AXIS2_PLACEMENT_3D ( 'NONE', #317, #187, #295 ) ;
#64 = DIRECTION ( 'NONE',  ( -3.491481338843133355E-15, 1.224646799147349263E-16, -1.000000000000000000 ) ) ;
#65 = MECHANICAL_DESIGN_GEOMETRIC_PRESENTATION_REPRESENTATION (  '', ( #169 ), #155 ) ;
#66 = EDGE_CURVE ( 'NONE', #209, #54, #14, .T. ) ;
#67 = EDGE_CURVE ( 'NONE', #204, #279, #152, .T. ) ;
#68 = FACE_OUTER_BOUND ( 'NONE', #107, .T. ) ;
#69 = CARTESIAN_POINT ( 'NONE',  ( 2.513866563967056016E-13, -8.817456953860941711E-15, 72.00000000000000000 ) ) ;
#70 = FACE_OUTER_BOUND ( 'NONE', #58, .T. ) ;
#71 = LINE ( 'NONE', #196, #198 ) ;
#72 =( NAMED_UNIT ( * ) SI_UNIT ( $, .STERADIAN. ) SOLID_ANGLE_UNIT ( ) );
#73 = FILL_AREA_STYLE_COLOUR ( '', #316 ) ;
#74 = ORIENTED_EDGE ( 'NONE', *, *, #223, .F. ) ;
#75 = MANIFOLD_SOLID_BREP ( 'Corps-Déplacer/Copier1[2]', #160 ) ;
#76 = ADVANCED_FACE ( 'NONE', ( #70 ), #270, .T. ) ;
#77 =( NAMED_UNIT ( * ) SI_UNIT ( $, .STERADIAN. ) SOLID_ANGLE_UNIT ( ) );
#78 = ORIENTED_EDGE ( 'NONE', *, *, #93, .F. ) ;
#79 = EDGE_LOOP ( 'NONE', ( #294, #30, #244, #83 ) ) ;
#80 = ORIENTED_EDGE ( 'NONE', *, *, #212, .T. ) ;
#81 = VECTOR ( 'NONE', #137, 1000.000000000000114 ) ;
#82 = FACE_OUTER_BOUND ( 'NONE', #154, .T. ) ;
#83 = ORIENTED_EDGE ( 'NONE', *, *, #194, .T. ) ;
#84 = CARTESIAN_POINT ( 'NONE',  ( 8.379555213223520053E-14, 4.949999999999997513, 24.00000000000000000 ) ) ;
#85 = DIRECTION ( 'NONE',  ( 0.000000000000000000, 1.000000000000000000, 0.000000000000000000 ) ) ;
#86 = EDGE_LOOP ( 'NONE', ( #262, #32, #47, #74 ) ) ;
#87 = CIRCLE ( 'NONE', #164, 4.950000000000000178 ) ;
#88 = CYLINDRICAL_SURFACE ( 'NONE', #247, 4.949999999999999289 ) ;
#89 = PRODUCT_CONTEXT ( 'NONE', #98, 'mechanical' ) ;
#90 = LINE ( 'NONE', #59, #81 ) ;
#91 = SURFACE_SIDE_STYLE ('',( #276 ) ) ;
#92 = EDGE_CURVE ( 'NONE', #111, #41, #108, .T. ) ;
#93 = EDGE_CURVE ( 'NONE', #279, #184, #71, .T. ) ;
#94 = CARTESIAN_POINT ( 'NONE',  ( 8.379555213223520053E-14, 0.000000000000000000, 24.00000000000000000 ) ) ;
#95 = DIRECTION ( 'NONE',  ( -4.275831445896958607E-31, -1.000000000000000000, -1.224646799147353207E-16 ) ) ;
#96 = CARTESIAN_POINT ( 'NONE',  ( 0.000000000000000000, 0.000000000000000000, 0.000000000000000000 ) ) ;
#97 = PRODUCT_DEFINITION_CONTEXT ( 'detailed design', #127, 'design' ) ;
#98 = APPLICATION_CONTEXT ( 'automotive_design' ) ;
#99 = ORIENTED_EDGE ( 'NONE', *, *, #190, .T. ) ;
#100 = CIRCLE ( 'NONE', #337, 4.999999999999997335 ) ;
#101 = PRODUCT_RELATED_PRODUCT_CATEGORY ( 'part', '', ( #277 ) ) ;
#102 = ORIENTED_EDGE ( 'NONE', *, *, #43, .T. ) ;
#103 = CARTESIAN_POINT ( 'NONE',  ( 4.950000000000083666, 0.000000000000000000, 23.99999999999998224 ) ) ;
#104 = EDGE_CURVE ( 'NONE', #60, #29, #87, .T. ) ;
#105 =( NAMED_UNIT ( * ) SI_UNIT ( $, .STERADIAN. ) SOLID_ANGLE_UNIT ( ) );
#106 = CARTESIAN_POINT ( 'NONE',  ( 2.501920067869003115E-13, -3.999999999999997335, 72.00000000000000000 ) ) ;
#107 = EDGE_LOOP ( 'NONE', ( #285, #128 ) ) ;
#108 = CIRCLE ( 'NONE', #15, 4.999999999999994671 ) ;
#109 = DIRECTION ( 'NONE',  ( -1.598721155460225734E-14, -1.000000000000000000, 0.000000000000000000 ) ) ;
#110 = CARTESIAN_POINT ( 'NONE',  ( 2.478951750578624304E-13, -8.694992273946206563E-15, 71.00000000000000000 ) ) ;
#111 = VERTEX_POINT ( 'NONE', #307 ) ;
#112 = EDGE_CURVE ( 'NONE', #54, #209, #222, .T. ) ;
#113 = LINE ( 'NONE', #213, #242 ) ;
#114 = DIRECTION ( 'NONE',  ( 0.000000000000000000, -1.000000000000000000, 0.000000000000000000 ) ) ;
#115 = EDGE_CURVE ( 'NONE', #27, #314, #274, .T. ) ;
#116 = AXIS2_PLACEMENT_3D ( 'NONE', #163, #240, #114 ) ;
#117 = CONICAL_SURFACE ( 'NONE', #175, 4.999999999999997335, 0.7853981633974522758 ) ;
#118 = DIRECTION ( 'NONE',  ( 0.000000000000000000, 0.000000000000000000, 1.000000000000000000 ) ) ;
#119 = DIRECTION ( 'NONE',  ( 0.000000000000000000, -1.000000000000000000, 0.000000000000000000 ) ) ;
#120 = CARTESIAN_POINT ( 'NONE',  ( 4.950000000000000178, 0.000000000000000000, -1.728283262727351011E-14 ) ) ;
#121 = LINE ( 'NONE', #219, #146 ) ;
#122 = DIRECTION ( 'NONE',  ( 0.000000000000000000, 1.000000000000000000, 0.000000000000000000 ) ) ;
#123 = SURFACE_STYLE_FILL_AREA ( #246 ) ;
#124 = DIRECTION ( 'NONE',  ( 1.000000000000000000, 0.000000000000000000, -3.491481338843133355E-15 ) ) ;
#125 =( NAMED_UNIT ( * ) PLANE_ANGLE_UNIT ( ) SI_UNIT ( $, .RADIAN. ) );
#126 =( GEOMETRIC_REPRESENTATION_CONTEXT ( 3 ) GLOBAL_UNCERTAINTY_ASSIGNED_CONTEXT ( ( #229 ) ) GLOBAL_UNIT_ASSIGNED_CONTEXT ( ( #24, #278, #311 ) ) REPRESENTATION_CONTEXT ( 'NONE', 'WORKASPACE' ) );
#127 = APPLICATION_CONTEXT ( 'automotive_design' ) ;
#128 = ORIENTED_EDGE ( 'NONE', *, *, #190, .F. ) ;
#129 =( NAMED_UNIT ( * ) PLANE_ANGLE_UNIT ( ) SI_UNIT ( $, .RADIAN. ) );
#130 = ADVANCED_FACE ( 'NONE', ( #141 ), #117, .T. ) ;
#131 = AXIS2_PLACEMENT_3D ( 'NONE', #289, #252, #148 ) ;
#132 = ORIENTED_EDGE ( 'NONE', *, *, #16, .T. ) ;
#133 = LINE ( 'NONE', #103, #202 ) ;
#134 = ORIENTED_EDGE ( 'NONE', *, *, #223, .T. ) ;
#135 = DIRECTION ( 'NONE',  ( 3.285674118869263394E-15, -0.3382550599108810063, 0.9410544694355829076 ) ) ;
#136 = PRESENTATION_LAYER_ASSIGNMENT (  '', '', ( #342 ) ) ;
#137 = DIRECTION ( 'NONE',  ( -2.468850131082255088E-15, 0.7071067811865504593, -0.7071067811865445751 ) ) ;
#138 = DIRECTION ( 'NONE',  ( 1.000000000000000000, 0.000000000000000000, -3.504491870660218137E-15 ) ) ;
#139 = STYLED_ITEM ( 'NONE', ( #199 ), #75 ) ;
#140 = AXIS2_PLACEMENT_3D ( 'NONE', #31, #261, #235 ) ;
#141 = FACE_OUTER_BOUND ( 'NONE', #86, .T. ) ;
#142 = CARTESIAN_POINT ( 'NONE',  ( 2.478951750578624304E-13, -8.694992273946206563E-15, 71.00000000000000000 ) ) ;
#143 = FILL_AREA_STYLE_COLOUR ( '', #55 ) ;
#144 = CARTESIAN_POINT ( 'NONE',  ( 2.137915722948479303E-31, 4.950000000000000178, 6.123233995736767268E-17 ) ) ;
#145 = ORIENTED_EDGE ( 'NONE', *, *, #66, .F. ) ;
#146 = VECTOR ( 'NONE', #22, 999.9999999999998863 ) ;
#147 = PRESENTATION_STYLE_ASSIGNMENT (( #257 ) ) ;
#148 = DIRECTION ( 'NONE',  ( 4.275831445896959482E-31, 1.000000000000000000, 1.224646799147353207E-16 ) ) ;
#149 = DIRECTION ( 'NONE',  ( 1.000000000000000000, 0.000000000000000000, -3.491481338843133355E-15 ) ) ;
#150 = ADVANCED_FACE ( 'NONE', ( #68 ), #44, .F. ) ;
#151 = EDGE_LOOP ( 'NONE', ( #339, #99, #296, #182 ) ) ;
#152 = CIRCLE ( 'NONE', #197, 3.999999999999988898 ) ;
#153 = AXIS2_PLACEMENT_3D ( 'NONE', #156, #61, #119 ) ;
#154 = EDGE_LOOP ( 'NONE', ( #145, #298, #53, #5 ) ) ;
#155 =( GEOMETRIC_REPRESENTATION_CONTEXT ( 3 ) GLOBAL_UNCERTAINTY_ASSIGNED_CONTEXT ( ( #340 ) ) GLOBAL_UNIT_ASSIGNED_CONTEXT ( ( #301, #125, #72 ) ) REPRESENTATION_CONTEXT ( 'NONE', 'WORKASPACE' ) );
#156 = CARTESIAN_POINT ( 'NONE',  ( 8.379555213223520053E-14, -2.939152317953647894E-15, 24.00000000000000000 ) ) ;
#157 = EDGE_LOOP ( 'NONE', ( #21, #260 ) ) ;
#158 = LINE ( 'NONE', #263, #292 ) ;
#159 = ORIENTED_EDGE ( 'NONE', *, *, #6, .F. ) ;
#160 = CLOSED_SHELL ( 'NONE', ( #76, #253, #284, #150 ) ) ;
#161 = EDGE_CURVE ( 'NONE', #29, #314, #17, .T. ) ;
#162 = CYLINDRICAL_SURFACE ( 'NONE', #140, 4.999999999999997335 ) ;
#163 = CARTESIAN_POINT ( 'NONE',  ( 2.513866563967056016E-13, -8.817456953860941711E-15, 72.00000000000000000 ) ) ;
#164 = AXIS2_PLACEMENT_3D ( 'NONE', #177, #334, #193 ) ;
#165 = FACE_OUTER_BOUND ( 'NONE', #157, .T. ) ;
#166 = DIRECTION ( 'NONE',  ( 1.000000000000000000, 0.000000000000000000, -3.504491870660216954E-15 ) ) ;
#167 = EDGE_CURVE ( 'NONE', #209, #111, #121, .T. ) ;
#168 = DIRECTION ( 'NONE',  ( 3.491481338843133355E-15, -0.000000000000000000, 1.000000000000000000 ) ) ;
#169 = STYLED_ITEM ( 'NONE', ( #191 ), #42 ) ;
#170 = UNCERTAINTY_MEASURE_WITH_UNIT (LENGTH_MEASURE( 1.000000000000000082E-05 ), #255, 'distance_accuracy_value', 'NONE');
#171 = DIRECTION ( 'NONE',  ( 3.491481338843133355E-15, -0.000000000000000000, 1.000000000000000000 ) ) ;
#172 = ORIENTED_EDGE ( 'NONE', *, *, #250, .T. ) ;
#173 = ADVANCED_FACE ( 'NONE', ( #183 ), #203, .T. ) ;
#174 = DIRECTION ( 'NONE',  ( -2.382254525458706031E-15, -0.7071067811865502373, -0.7071067811865449082 ) ) ;
#175 = AXIS2_PLACEMENT_3D ( 'NONE', #142, #18, #272 ) ;
#176 = SURFACE_STYLE_USAGE ( .BOTH. , #13 ) ;
#177 = CARTESIAN_POINT ( 'NONE',  ( 0.000000000000000000, 0.000000000000000000, 0.000000000000000000 ) ) ;
#178 = DIRECTION ( 'NONE',  ( 3.491481338843133355E-15, -0.000000000000000000, 1.000000000000000000 ) ) ;
#179 = AXIS2_PLACEMENT_3D ( 'NONE', #94, #171, #200 ) ;
#180 = ORIENTED_EDGE ( 'NONE', *, *, #291, .T. ) ;
#181 = DIRECTION ( 'NONE',  ( -3.491481338843133355E-15, 1.224646799147349263E-16, -1.000000000000000000 ) ) ;
#182 = ORIENTED_EDGE ( 'NONE', *, *, #16, .F. ) ;
#183 = FACE_OUTER_BOUND ( 'NONE', #48, .T. ) ;
#184 = VERTEX_POINT ( 'NONE', #254 ) ;
#185 = MECHANICAL_DESIGN_GEOMETRIC_PRESENTATION_REPRESENTATION (  '', ( #139 ), #312 ) ;
#186 = AXIS2_PLACEMENT_3D ( 'NONE', #237, #3, #109 ) ;
#187 = DIRECTION ( 'NONE',  ( -3.491481338843133355E-15, 0.000000000000000000, -1.000000000000000000 ) ) ;
#188 = CARTESIAN_POINT ( 'NONE',  ( 8.379555213223520053E-14, 0.000000000000000000, 24.00000000000000000 ) ) ;
#189 = DIRECTION ( 'NONE',  ( -3.491481338843133355E-15, 1.224646799147353207E-16, -1.000000000000000000 ) ) ;
#190 = EDGE_CURVE ( 'NONE', #29, #60, #28, .T. ) ;
#191 = PRESENTATION_STYLE_ASSIGNMENT (( #327 ) ) ;
#192 = FILL_AREA_STYLE ('',( #73 ) ) ;
#193 = DIRECTION ( 'NONE',  ( 1.000000000000000000, 0.000000000000000000, -3.491481338843133355E-15 ) ) ;
#194 = EDGE_CURVE ( 'NONE', #41, #111, #265, .T. ) ;
#195 = VECTOR ( 'NONE', #36, 1000.000000000000000 ) ;
#196 = CARTESIAN_POINT ( 'NONE',  ( 2.485074984574361313E-13, -5.000000000000006217, 71.00000000000000000 ) ) ;
#197 = AXIS2_PLACEMENT_3D ( 'NONE', #69, #306, #333 ) ;
#198 = VECTOR ( 'NONE', #174, 1000.000000000000114 ) ;
#199 = PRESENTATION_STYLE_ASSIGNMENT (( #176 ) ) ;
#200 = DIRECTION ( 'NONE',  ( 1.000000000000000000, 0.000000000000000000, -3.504491870660216954E-15 ) ) ;
#201 = CIRCLE ( 'NONE', #49, 4.949999999999997513 ) ;
#202 = VECTOR ( 'NONE', #205, 1000.000000000000000 ) ;
#203 = CYLINDRICAL_SURFACE ( 'NONE', #131, 4.999999999999997335 ) ;
#204 = VERTEX_POINT ( 'NONE', #280 ) ;
#205 = DIRECTION ( 'NONE',  ( 3.491481338843133355E-15, -0.000000000000000000, 1.000000000000000000 ) ) ;
#206 = ORIENTED_EDGE ( 'NONE', *, *, #67, .F. ) ;
#207 = FACE_OUTER_BOUND ( 'NONE', #23, .T. ) ;
#208 = PRESENTATION_LAYER_ASSIGNMENT (  '', '', ( #169 ) ) ;
#209 = VERTEX_POINT ( 'NONE', #343 ) ;
#210 = PLANE ( 'NONE',  #63 ) ;
#211 = ORIENTED_EDGE ( 'NONE', *, *, #291, .F. ) ;
#212 = EDGE_CURVE ( 'NONE', #234, #184, #100, .T. ) ;
#213 = CARTESIAN_POINT ( 'NONE',  ( 6.123233995736741630E-16, -4.999999999999997335, -6.123233995736784032E-16 ) ) ;
#214 = EDGE_CURVE ( 'NONE', #60, #27, #133, .T. ) ;
#215 = AXIS2_PLACEMENT_3D ( 'NONE', #220, #251, #303 ) ;
#216 = APPLICATION_PROTOCOL_DEFINITION ( 'draft international standard', 'automotive_design', 1998, #98 ) ;
#217 = FACE_OUTER_BOUND ( 'NONE', #290, .T. ) ;
#218 = CARTESIAN_POINT ( 'NONE',  ( 8.379555213223520053E-14, -2.939152317953647894E-15, 24.00000000000000000 ) ) ;
#219 = CARTESIAN_POINT ( 'NONE',  ( 8.440175229781314077E-14, 4.949999999999997513, 24.00000000000000000 ) ) ;
#220 = CARTESIAN_POINT ( 'NONE',  ( 8.379555213223520053E-14, 0.000000000000000000, 24.00000000000000000 ) ) ;
#221 = ADVANCED_FACE ( 'NONE', ( #165 ), #321, .T. ) ;
#222 = CIRCLE ( 'NONE', #35, 4.950000000000000178 ) ;
#223 = EDGE_CURVE ( 'NONE', #204, #234, #90, .T. ) ;
#224 = FILL_AREA_STYLE_COLOUR ( '', #238 ) ;
#225 =( LENGTH_UNIT ( ) NAMED_UNIT ( * ) SI_UNIT ( .MILLI., .METRE. ) );
#226 = DIRECTION ( 'NONE',  ( 3.491481338843133355E-15, -0.000000000000000000, 1.000000000000000000 ) ) ;
#227 = AXIS2_PLACEMENT_3D ( 'NONE', #25, #232, #315 ) ;
#228 =( NAMED_UNIT ( * ) PLANE_ANGLE_UNIT ( ) SI_UNIT ( $, .RADIAN. ) );
#229 = UNCERTAINTY_MEASURE_WITH_UNIT (LENGTH_MEASURE( 1.000000000000000082E-05 ), #24, 'distance_accuracy_value', 'NONE');
#230 = DIRECTION ( 'NONE',  ( 3.491481338843133355E-15, -1.224646799147353207E-16, 1.000000000000000000 ) ) ;
#231 = AXIS2_PLACEMENT_3D ( 'NONE', #288, #230, #95 ) ;
#232 = DIRECTION ( 'NONE',  ( -3.491481338843133355E-15, 1.224646799147353207E-16, -1.000000000000000000 ) ) ;
#233 = ADVANCED_FACE ( 'NONE', ( #82 ), #37, .T. ) ;
#234 = VERTEX_POINT ( 'NONE', #297 ) ;
#235 = DIRECTION ( 'NONE',  ( 4.275831445896959482E-31, 1.000000000000000000, 1.224646799147353207E-16 ) ) ;
#236 = ORIENTED_EDGE ( 'NONE', *, *, #115, .T. ) ;
#237 = CARTESIAN_POINT ( 'NONE',  ( 2.478951750578624304E-13, -8.694992273946206563E-15, 71.00000000000000000 ) ) ;
#238 = COLOUR_RGB ( '',1.000000000000000000, 1.000000000000000000, 1.000000000000000000 ) ;
#239 = CARTESIAN_POINT ( 'NONE',  ( 8.379555213223520053E-14, -2.939152317953647894E-15, 24.00000000000000000 ) ) ;
#240 = DIRECTION ( 'NONE',  ( 3.491481338843133355E-15, -1.224646799147353207E-16, 1.000000000000000000 ) ) ;
#241 = UNCERTAINTY_MEASURE_WITH_UNIT (LENGTH_MEASURE( 1.000000000000000082E-05 ), #225, 'distance_accuracy_value', 'NONE');
#242 = VECTOR ( 'NONE', #323, 1000.000000000000000 ) ;
#243 = CARTESIAN_POINT ( 'NONE',  ( 0.000000000000000000, 0.000000000000000000, 0.000000000000000000 ) ) ;
#244 = ORIENTED_EDGE ( 'NONE', *, *, #286, .T. ) ;
#245 = ADVANCED_FACE ( 'NONE', ( #8 ), #10, .T. ) ;
#246 = FILL_AREA_STYLE ('',( #143 ) ) ;
#247 = AXIS2_PLACEMENT_3D ( 'NONE', #1, #264, #166 ) ;
#248 = DIRECTION ( 'NONE',  ( 0.000000000000000000, 1.000000000000000000, 0.000000000000000000 ) ) ;
#249 = ORIENTED_EDGE ( 'NONE', *, *, #214, .F. ) ;
#250 = EDGE_CURVE ( 'NONE', #184, #41, #113, .T. ) ;
#251 = DIRECTION ( 'NONE',  ( 3.491481338843133355E-15, -0.000000000000000000, 1.000000000000000000 ) ) ;
#252 = DIRECTION ( 'NONE',  ( -3.491481338843133355E-15, 1.224646799147353207E-16, -1.000000000000000000 ) ) ;
#253 = ADVANCED_FACE ( 'NONE', ( #57 ), #88, .T. ) ;
#254 = CARTESIAN_POINT ( 'NONE',  ( 1.667005269775435144E-13, -5.000000000000006217, 71.00000000000000000 ) ) ;
#255 =( LENGTH_UNIT ( ) NAMED_UNIT ( * ) SI_UNIT ( .MILLI., .METRE. ) );
#256 = ADVANCED_FACE ( 'NONE', ( #217 ), #162, .T. ) ;
#257 = SURFACE_STYLE_USAGE ( .BOTH. , #20 ) ;
#258 = VECTOR ( 'NONE', #226, 1000.000000000000000 ) ;
#259 = DIRECTION ( 'NONE',  ( 1.687538997430237310E-14, -1.000000000000000000, 0.000000000000000000 ) ) ;
#260 = ORIENTED_EDGE ( 'NONE', *, *, #66, .T. ) ;
#261 = DIRECTION ( 'NONE',  ( -3.491481338843133355E-15, 1.224646799147353207E-16, -1.000000000000000000 ) ) ;
#262 = ORIENTED_EDGE ( 'NONE', *, *, #43, .F. ) ;
#263 = CARTESIAN_POINT ( 'NONE',  ( 8.379555213223520053E-14, -4.950000000000002842, 24.00000000000000000 ) ) ;
#264 = DIRECTION ( 'NONE',  ( 3.491481338843133355E-15, -0.000000000000000000, 1.000000000000000000 ) ) ;
#265 = CIRCLE ( 'NONE', #227, 4.999999999999994671 ) ;
#266 = DIRECTION ( 'NONE',  ( 4.275831445896958607E-31, 1.000000000000000000, 1.224646799147353207E-16 ) ) ;
#267 = APPLICATION_PROTOCOL_DEFINITION ( 'draft international standard', 'automotive_design', 1998, #127 ) ;
#268 = DIRECTION ( 'NONE',  ( -3.491481338843133355E-15, 1.224646799147353207E-16, -1.000000000000000000 ) ) ;
#269 = PRODUCT_DEFINITION_SHAPE ( 'NONE', 'NONE',  #313 ) ;
#270 = CYLINDRICAL_SURFACE ( 'NONE', #179, 4.949999999999999289 ) ;
#271 = ORIENTED_EDGE ( 'NONE', *, *, #67, .T. ) ;
#272 = DIRECTION ( 'NONE',  ( 0.000000000000000000, 1.000000000000000000, 0.000000000000000000 ) ) ;
#273 = AXIS2_PLACEMENT_3D ( 'NONE', #218, #331, #330 ) ;
#274 = CIRCLE ( 'NONE', #215, 4.949999999999997513 ) ;
#275 = CARTESIAN_POINT ( 'NONE',  ( 8.379555213223520053E-14, -2.939152317953647894E-15, 24.00000000000000000 ) ) ;
#276 = SURFACE_STYLE_FILL_AREA ( #192 ) ;
#277 = PRODUCT ( '57008', '57008', '', ( #89 ) ) ;
#278 =( NAMED_UNIT ( * ) PLANE_ANGLE_UNIT ( ) SI_UNIT ( $, .RADIAN. ) );
#279 = VERTEX_POINT ( 'NONE', #106 ) ;
#280 = CARTESIAN_POINT ( 'NONE',  ( 2.496409157272839907E-13, 3.999999999999980016, 72.00000000000000000 ) ) ;
#281 = ORIENTED_EDGE ( 'NONE', *, *, #161, .T. ) ;
#282 = CIRCLE ( 'NONE', #116, 3.999999999999988898 ) ;
#283 = MECHANICAL_DESIGN_GEOMETRIC_PRESENTATION_REPRESENTATION (  '', ( #342 ), #45 ) ;
#284 = ADVANCED_FACE ( 'NONE', ( #207 ), #210, .F. ) ;
#285 = ORIENTED_EDGE ( 'NONE', *, *, #104, .F. ) ;
#286 = EDGE_CURVE ( 'NONE', #54, #41, #158, .T. ) ;
#287 = ORIENTED_EDGE ( 'NONE', *, *, #115, .F. ) ;
#288 = CARTESIAN_POINT ( 'NONE',  ( 2.513866563967056016E-13, -8.817456953860941711E-15, 72.00000000000000000 ) ) ;
#289 = CARTESIAN_POINT ( 'NONE',  ( 0.000000000000000000, 0.000000000000000000, 0.000000000000000000 ) ) ;
#290 = EDGE_LOOP ( 'NONE', ( #80, #172, #310, #159 ) ) ;
#291 = EDGE_CURVE ( 'NONE', #184, #234, #2, .T. ) ;
#292 = VECTOR ( 'NONE', #135, 1000.000000000000000 ) ;
#293 = LINE ( 'NONE', #318, #195 ) ;
#294 = ORIENTED_EDGE ( 'NONE', *, *, #167, .F. ) ;
#295 = DIRECTION ( 'NONE',  ( -1.000000000000000000, 0.000000000000000000, 3.491481338843133355E-15 ) ) ;
#296 = ORIENTED_EDGE ( 'NONE', *, *, #214, .T. ) ;
#297 = CARTESIAN_POINT ( 'NONE',  ( 1.660882035779698891E-13, 4.999999999999988454, 71.00000000000000000 ) ) ;
#298 = ORIENTED_EDGE ( 'NONE', *, *, #167, .T. ) ;
#299 = AXIS2_PLACEMENT_3D ( 'NONE', #110, #64, #85 ) ;
#300 = AXIS2_PLACEMENT_3D ( 'NONE', #239, #33, #7 ) ;
#301 =( LENGTH_UNIT ( ) NAMED_UNIT ( * ) SI_UNIT ( .MILLI., .METRE. ) );
#302 = SURFACE_STYLE_FILL_AREA ( #329 ) ;
#303 = DIRECTION ( 'NONE',  ( 1.000000000000000000, 0.000000000000000000, -3.504491870660218137E-15 ) ) ;
#304 = MANIFOLD_SOLID_BREP ( 'Corps-Déplacer/Copier1[1]', #341 ) ;
#305 = ADVANCED_FACE ( 'NONE', ( #338 ), #319, .T. ) ;
#306 = DIRECTION ( 'NONE',  ( 3.491481338843133355E-15, -1.224646799147353207E-16, 1.000000000000000000 ) ) ;
#307 = CARTESIAN_POINT ( 'NONE',  ( 8.428123209807733522E-14, 4.999999999999992006, 24.13910427085457755 ) ) ;
#308 = AXIS2_PLACEMENT_3D ( 'NONE', #144, #46, #124 ) ;
#309 = CARTESIAN_POINT ( 'NONE',  ( -4.949999999999914024, 6.062001655779396539E-16, 24.00000000000001776 ) ) ;
#310 = ORIENTED_EDGE ( 'NONE', *, *, #92, .F. ) ;
#311 =( NAMED_UNIT ( * ) SI_UNIT ( $, .STERADIAN. ) SOLID_ANGLE_UNIT ( ) );
#312 =( GEOMETRIC_REPRESENTATION_CONTEXT ( 3 ) GLOBAL_UNCERTAINTY_ASSIGNED_CONTEXT ( ( #241 ) ) GLOBAL_UNIT_ASSIGNED_CONTEXT ( ( #225, #228, #105 ) ) REPRESENTATION_CONTEXT ( 'NONE', 'WORKASPACE' ) );
#313 = PRODUCT_DEFINITION ( 'UNKNOWN', '', #11, #97 ) ;
#314 = VERTEX_POINT ( 'NONE', #309 ) ;
#315 = DIRECTION ( 'NONE',  ( 0.000000000000000000, 1.000000000000000000, 0.000000000000000000 ) ) ;
#316 = COLOUR_RGB ( '',1.000000000000000000, 1.000000000000000000, 1.000000000000000000 ) ;
#317 = CARTESIAN_POINT ( 'NONE',  ( 8.379555213223520053E-14, 4.949999999999997513, 24.00000000000000000 ) ) ;
#318 = CARTESIAN_POINT ( 'NONE',  ( 2.137915722948478427E-30, 4.999999999999997335, 6.123233995736763324E-16 ) ) ;
#319 = PLANE ( 'NONE',  #231 ) ;
#320 = ORIENTED_EDGE ( 'NONE', *, *, #104, .T. ) ;
#321 = PLANE ( 'NONE',  #325 ) ;
#322 = FACE_OUTER_BOUND ( 'NONE', #335, .T. ) ;
#323 = DIRECTION ( 'NONE',  ( -3.491481338843133355E-15, 1.224646799147353207E-16, -1.000000000000000000 ) ) ;
#324 = CARTESIAN_POINT ( 'NONE',  ( 8.403839211515627419E-14, -4.950000000000002842, 24.00000000000000000 ) ) ;
#325 = AXIS2_PLACEMENT_3D ( 'NONE', #84, #189, #266 ) ;
#326 = DIRECTION ( 'NONE',  ( 1.000000000000000000, 0.000000000000000000, 0.000000000000000000 ) ) ;
#327 = SURFACE_STYLE_USAGE ( .BOTH. , #91 ) ;
#328 = CONICAL_SURFACE ( 'NONE', #299, 4.999999999999997335, 0.7853981633974522758 ) ;
#329 = FILL_AREA_STYLE ('',( #224 ) ) ;
#330 = DIRECTION ( 'NONE',  ( 0.000000000000000000, 1.000000000000000000, 0.000000000000000000 ) ) ;
#331 = DIRECTION ( 'NONE',  ( -3.491481338843133355E-15, 1.224646799147353207E-16, -1.000000000000000000 ) ) ;
#332 = CARTESIAN_POINT ( 'NONE',  ( 8.428123209807733522E-14, -2.956187677958626025E-15, 24.13910427085457755 ) ) ;
#333 = DIRECTION ( 'NONE',  ( 0.000000000000000000, -1.000000000000000000, 0.000000000000000000 ) ) ;
#334 = DIRECTION ( 'NONE',  ( 3.491481338843133355E-15, -0.000000000000000000, 1.000000000000000000 ) ) ;
#335 = EDGE_LOOP ( 'NONE', ( #78, #206, #134, #211 ) ) ;
#336 = PRESENTATION_LAYER_ASSIGNMENT (  '', '', ( #139 ) ) ;
#337 = AXIS2_PLACEMENT_3D ( 'NONE', #50, #181, #259 ) ;
#338 = FACE_OUTER_BOUND ( 'NONE', #26, .T. ) ;
#339 = ORIENTED_EDGE ( 'NONE', *, *, #161, .F. ) ;
#340 = UNCERTAINTY_MEASURE_WITH_UNIT (LENGTH_MEASURE( 1.000000000000000082E-05 ), #301, 'distance_accuracy_value', 'NONE');
#341 = CLOSED_SHELL ( 'NONE', ( #130, #233, #256, #221, #305, #173, #245, #34 ) ) ;
#342 = STYLED_ITEM ( 'NONE', ( #147 ), #304 ) ;
#343 = CARTESIAN_POINT ( 'NONE',  ( 8.464765389773208849E-14, 4.949999999999997513, 24.00000000000000000 ) ) ;
ENDSEC;
END-ISO-10303-21;
