ISO-10303-21;
HEADER;
FILE_DESCRIPTION (( 'STEP AP214' ),
    '1' );
FILE_NAME ('57007.step',
    '2024-04-04T09:56:09',
    ( '' ),
    ( '' ),
    'SwSTEP 2.0',
    'SolidWorks 2022',
    '' );
FILE_SCHEMA (( 'AUTOMOTIVE_DESIGN' ));
ENDSEC;

DATA;
#1 =( NAMED_UNIT ( * ) PLANE_ANGLE_UNIT ( ) SI_UNIT ( $, .RADIAN. ) );
#2 = VERTEX_POINT ( 'NONE', #234 ) ;
#3 = DIRECTION ( 'NONE',  ( 3.491481338843133355E-15, -0.000000000000000000, 1.000000000000000000 ) ) ;
#4 = VECTOR ( 'NONE', #120, 1000.000000000000114 ) ;
#5 = FACE_OUTER_BOUND ( 'NONE', #289, .T. ) ;
#6 = CIRCLE ( 'NONE', #154, 3.950000000000000178 ) ;
#7 = AXIS2_PLACEMENT_3D ( 'NONE', #261, #184, #75 ) ;
#8 = PLANE ( 'NONE',  #117 ) ;
#9 = EDGE_CURVE ( 'NONE', #311, #254, #19, .T. ) ;
#10 = CARTESIAN_POINT ( 'NONE',  ( 2.176599979957017722E-13, -4.000000000000002665, 62.19999999999998153 ) ) ;
#11 = EDGE_LOOP ( 'NONE', ( #49, #204, #57, #180 ) ) ;
#12 = PRODUCT ( '57007', '57007', '', ( #198 ) ) ;
#13 = DIRECTION ( 'NONE',  ( 0.000000000000000000, 1.000000000000000000, 0.000000000000000000 ) ) ;
#14 = DIRECTION ( 'NONE',  ( 0.000000000000000000, -1.000000000000000000, 0.000000000000000000 ) ) ;
#15 = AXIS2_PLACEMENT_3D ( 'NONE', #66, #169, #14 ) ;
#16 = CARTESIAN_POINT ( 'NONE',  ( 2.199633243471174140E-13, -7.715274834628325378E-15, 63.00000000000000000 ) ) ;
#17 = AXIS2_PLACEMENT_3D ( 'NONE', #42, #325, #13 ) ;
#18 =( NAMED_UNIT ( * ) PLANE_ANGLE_UNIT ( ) SI_UNIT ( $, .RADIAN. ) );
#19 = LINE ( 'NONE', #226, #175 ) ;
#20 = ORIENTED_EDGE ( 'NONE', *, *, #235, .F. ) ;
#21 = ORIENTED_EDGE ( 'NONE', *, *, #55, .T. ) ;
#22 = ORIENTED_EDGE ( 'NONE', *, *, #65, .T. ) ;
#23 = CARTESIAN_POINT ( 'NONE',  ( 0.000000000000000000, 0.000000000000000000, 0.000000000000000000 ) ) ;
#24 = AXIS2_PLACEMENT_3D ( 'NONE', #200, #277, #70 ) ;
#25 = AXIS2_PLACEMENT_3D ( 'NONE', #242, #212, #31 ) ;
#26 = APPLICATION_CONTEXT ( 'automotive_design' ) ;
#27 = CARTESIAN_POINT ( 'NONE',  ( 6.721101577273030131E-14, -3.950000000000002842, 19.24999999999999645 ) ) ;
#28 = CIRCLE ( 'NONE', #7, 3.949999999999997957 ) ;
#29 =( NAMED_UNIT ( * ) SI_UNIT ( $, .STERADIAN. ) SOLID_ANGLE_UNIT ( ) );
#30 = EDGE_LOOP ( 'NONE', ( #159, #231 ) ) ;
#31 = DIRECTION ( 'NONE',  ( 0.000000000000000000, -1.000000000000000000, 0.000000000000000000 ) ) ;
#32 = AXIS2_PLACEMENT_3D ( 'NONE', #114, #246, #147 ) ;
#33 = ADVANCED_FACE ( 'NONE', ( #127 ), #195, .T. ) ;
#34 = CARTESIAN_POINT ( 'NONE',  ( 2.190076046592731416E-13, -3.199999999999994404, 63.00000000000000000 ) ) ;
#35 = ORIENTED_EDGE ( 'NONE', *, *, #113, .T. ) ;
#36 = DIRECTION ( 'NONE',  ( 3.491481338843133355E-15, -0.000000000000000000, 1.000000000000000000 ) ) ;
#37 = SURFACE_STYLE_USAGE ( .BOTH. , #173 ) ;
#38 = DIRECTION ( 'NONE',  ( -1.000000000000000000, 0.000000000000000000, 3.491481338843133355E-15 ) ) ;
#39 = DIRECTION ( 'NONE',  ( 1.000000000000000000, 0.000000000000000000, -3.491481338843133355E-15 ) ) ;
#40 = CIRCLE ( 'NONE', #230, 3.199999999999986855 ) ;
#41 = ADVANCED_FACE ( 'NONE', ( #302 ), #315, .T. ) ;
#42 = CARTESIAN_POINT ( 'NONE',  ( 6.769669573857241076E-14, -2.374480448363631705E-15, 19.38910427085456689 ) ) ;
#43 = ADVANCED_FACE ( 'NONE', ( #99 ), #286, .T. ) ;
#44 = SURFACE_SIDE_STYLE ('',( #119 ) ) ;
#45 = COLOUR_RGB ( '',1.000000000000000000, 1.000000000000000000, 1.000000000000000000 ) ;
#46 = ORIENTED_EDGE ( 'NONE', *, *, #305, .T. ) ;
#47 = CONICAL_SURFACE ( 'NONE', #251, 3.950000000000000178, 0.3450620389298171831 ) ;
#48 = ORIENTED_EDGE ( 'NONE', *, *, #188, .T. ) ;
#49 = ORIENTED_EDGE ( 'NONE', *, *, #313, .T. ) ;
#50 = CIRCLE ( 'NONE', #123, 3.950000000000000178 ) ;
#51 = ORIENTED_EDGE ( 'NONE', *, *, #113, .F. ) ;
#52 = DIRECTION ( 'NONE',  ( 1.000000000000000000, 0.000000000000000000, -3.491481338843133355E-15 ) ) ;
#53 = EDGE_CURVE ( 'NONE', #2, #96, #229, .T. ) ;
#54 = CARTESIAN_POINT ( 'NONE',  ( 2.185667318115801102E-13, 3.199999999999978861, 63.00000000000000000 ) ) ;
#55 = EDGE_CURVE ( 'NONE', #149, #278, #6, .T. ) ;
#56 = DIRECTION ( 'NONE',  ( 3.327098416510790371E-15, 0.3382550599108800626, 0.9410544694355832407 ) ) ;
#57 = ORIENTED_EDGE ( 'NONE', *, *, #222, .F. ) ;
#58 = DIRECTION ( 'NONE',  ( 0.000000000000000000, 1.000000000000000000, 0.000000000000000000 ) ) ;
#59 =( GEOMETRIC_REPRESENTATION_CONTEXT ( 3 ) GLOBAL_UNCERTAINTY_ASSIGNED_CONTEXT ( ( #63 ) ) GLOBAL_UNIT_ASSIGNED_CONTEXT ( ( #89, #18, #280 ) ) REPRESENTATION_CONTEXT ( 'NONE', 'WORKASPACE' ) );
#60 = AXIS2_PLACEMENT_3D ( 'NONE', #293, #36, #138 ) ;
#61 = DIRECTION ( 'NONE',  ( 3.491481338843133355E-15, -0.000000000000000000, 1.000000000000000000 ) ) ;
#62 = DIRECTION ( 'NONE',  ( 0.000000000000000000, 1.000000000000000000, 0.000000000000000000 ) ) ;
#63 = UNCERTAINTY_MEASURE_WITH_UNIT (LENGTH_MEASURE( 1.000000000000000082E-05 ), #89, 'distance_accuracy_value', 'NONE');
#64 = CARTESIAN_POINT ( 'NONE',  ( 0.000000000000000000, 0.000000000000000000, 0.000000000000000000 ) ) ;
#65 = EDGE_CURVE ( 'NONE', #161, #2, #50, .T. ) ;
#66 = CARTESIAN_POINT ( 'NONE',  ( 6.721101577273030131E-14, -2.357445088358654363E-15, 19.24999999999999645 ) ) ;
#67 = SHAPE_DEFINITION_REPRESENTATION ( #142, #86 ) ;
#68 = SURFACE_STYLE_FILL_AREA ( #299 ) ;
#69 = FILL_AREA_STYLE ('',( #331 ) ) ;
#70 = DIRECTION ( 'NONE',  ( 1.000000000000000000, 0.000000000000000000, 0.000000000000000000 ) ) ;
#71 = FILL_AREA_STYLE_COLOUR ( '', #137 ) ;
#72 = ORIENTED_EDGE ( 'NONE', *, *, #126, .T. ) ;
#73 = FILL_AREA_STYLE ('',( #71 ) ) ;
#74 = CYLINDRICAL_SURFACE ( 'NONE', #196, 3.999999999999994671 ) ;
#75 = DIRECTION ( 'NONE',  ( 1.000000000000000000, 0.000000000000000000, -3.513364001978345245E-15 ) ) ;
#76 = ORIENTED_EDGE ( 'NONE', *, *, #165, .T. ) ;
#77 = ADVANCED_FACE ( 'NONE', ( #307 ), #74, .T. ) ;
#78 = PRESENTATION_STYLE_ASSIGNMENT (( #260 ) ) ;
#79 = VERTEX_POINT ( 'NONE', #186 ) ;
#80 = AXIS2_PLACEMENT_3D ( 'NONE', #129, #98, #203 ) ;
#81 = DIRECTION ( 'NONE',  ( -1.865174681370263619E-14, -1.000000000000000000, 0.000000000000000000 ) ) ;
#82 = ORIENTED_EDGE ( 'NONE', *, *, #248, .T. ) ;
#83 = LINE ( 'NONE', #270, #193 ) ;
#84 = ORIENTED_EDGE ( 'NONE', *, *, #305, .F. ) ;
#85 = DIRECTION ( 'NONE',  ( 3.491481338843133355E-15, -1.224646799147353207E-16, 1.000000000000000000 ) ) ;
#86 = ADVANCED_BREP_SHAPE_REPRESENTATION ( '57007', ( #104, #338, #24 ), #116 ) ;
#87 = AXIS2_PLACEMENT_3D ( 'NONE', #275, #294, #62 ) ;
#88 = ORIENTED_EDGE ( 'NONE', *, *, #53, .T. ) ;
#89 =( LENGTH_UNIT ( ) NAMED_UNIT ( * ) SI_UNIT ( .MILLI., .METRE. ) );
#90 = AXIS2_PLACEMENT_3D ( 'NONE', #267, #107, #58 ) ;
#91 = CARTESIAN_POINT ( 'NONE',  ( -3.950000000000000178, 4.837354856632086473E-16, 1.379135128843037991E-14 ) ) ;
#92 = FACE_OUTER_BOUND ( 'NONE', #109, .T. ) ;
#93 = CARTESIAN_POINT ( 'NONE',  ( 2.171701392760428316E-13, 3.999999999999987121, 62.19999999999998153 ) ) ;
#94 = UNCERTAINTY_MEASURE_WITH_UNIT (LENGTH_MEASURE( 1.000000000000000082E-05 ), #178, 'distance_accuracy_value', 'NONE');
#95 =( NAMED_UNIT ( * ) PLANE_ANGLE_UNIT ( ) SI_UNIT ( $, .RADIAN. ) );
#96 = VERTEX_POINT ( 'NONE', #281 ) ;
#97 =( LENGTH_UNIT ( ) NAMED_UNIT ( * ) SI_UNIT ( .MILLI., .METRE. ) );
#98 = DIRECTION ( 'NONE',  ( -3.491481338843133355E-15, 1.224646799147353207E-16, -1.000000000000000000 ) ) ;
#99 = FACE_OUTER_BOUND ( 'NONE', #153, .T. ) ;
#100 = EDGE_CURVE ( 'NONE', #79, #202, #28, .T. ) ;
#101 = EDGE_LOOP ( 'NONE', ( #35, #46 ) ) ;
#102 = VERTEX_POINT ( 'NONE', #54 ) ;
#103 = ORIENTED_EDGE ( 'NONE', *, *, #65, .F. ) ;
#104 = MANIFOLD_SOLID_BREP ( 'Corps-Déplacer/Copier1[1]', #323 ) ;
#105 = CYLINDRICAL_SURFACE ( 'NONE', #292, 3.949999999999998845 ) ;
#106 = AXIS2_PLACEMENT_3D ( 'NONE', #287, #341, #156 ) ;
#107 = DIRECTION ( 'NONE',  ( -3.491481338843133355E-15, 1.224646799147353207E-16, -1.000000000000000000 ) ) ;
#108 = FACE_OUTER_BOUND ( 'NONE', #30, .T. ) ;
#109 = EDGE_LOOP ( 'NONE', ( #148, #164 ) ) ;
#110 = ADVANCED_FACE ( 'NONE', ( #269 ), #47, .T. ) ;
#111 = CARTESIAN_POINT ( 'NONE',  ( 6.721101577273030131E-14, 0.000000000000000000, 19.24999999999999645 ) ) ;
#112 = AXIS2_PLACEMENT_3D ( 'NONE', #64, #192, #273 ) ;
#113 = EDGE_CURVE ( 'NONE', #102, #152, #220, .T. ) ;
#114 = CARTESIAN_POINT ( 'NONE',  ( 6.721101577273030131E-14, 0.000000000000000000, 19.24999999999999645 ) ) ;
#115 = LINE ( 'NONE', #332, #282 ) ;
#116 =( GEOMETRIC_REPRESENTATION_CONTEXT ( 3 ) GLOBAL_UNCERTAINTY_ASSIGNED_CONTEXT ( ( #94 ) ) GLOBAL_UNIT_ASSIGNED_CONTEXT ( ( #178, #121, #177 ) ) REPRESENTATION_CONTEXT ( 'NONE', 'WORKASPACE' ) );
#117 = AXIS2_PLACEMENT_3D ( 'NONE', #288, #85, #316 ) ;
#118 = DIRECTION ( 'NONE',  ( 1.953992523340274880E-14, -1.000000000000000000, 0.000000000000000000 ) ) ;
#119 = SURFACE_STYLE_FILL_AREA ( #69 ) ;
#120 = DIRECTION ( 'NONE',  ( -2.468850131082276782E-15, 0.7071067811865441310, -0.7071067811865507924 ) ) ;
#121 =( NAMED_UNIT ( * ) PLANE_ANGLE_UNIT ( ) SI_UNIT ( $, .RADIAN. ) );
#122 = ORIENTED_EDGE ( 'NONE', *, *, #201, .F. ) ;
#123 = AXIS2_PLACEMENT_3D ( 'NONE', #211, #232, #284 ) ;
#124 = ORIENTED_EDGE ( 'NONE', *, *, #53, .F. ) ;
#125 = ORIENTED_EDGE ( 'NONE', *, *, #208, .T. ) ;
#126 = EDGE_CURVE ( 'NONE', #161, #254, #241, .T. ) ;
#127 = FACE_OUTER_BOUND ( 'NONE', #150, .T. ) ;
#128 = AXIS2_PLACEMENT_3D ( 'NONE', #214, #3, #187 ) ;
#129 = CARTESIAN_POINT ( 'NONE',  ( 6.721101577273030131E-14, 3.949999999999997957, 19.24999999999999645 ) ) ;
#130 = PRESENTATION_LAYER_ASSIGNMENT (  '', '', ( #233 ) ) ;
#131 =( LENGTH_UNIT ( ) NAMED_UNIT ( * ) SI_UNIT ( .MILLI., .METRE. ) );
#132 = ORIENTED_EDGE ( 'NONE', *, *, #208, .F. ) ;
#133 = EDGE_LOOP ( 'NONE', ( #225, #309, #125, #210 ) ) ;
#134 = FACE_OUTER_BOUND ( 'NONE', #101, .T. ) ;
#135 = VECTOR ( 'NONE', #56, 1000.000000000000114 ) ;
#136 = FACE_OUTER_BOUND ( 'NONE', #133, .T. ) ;
#137 = COLOUR_RGB ( '',1.000000000000000000, 1.000000000000000000, 1.000000000000000000 ) ;
#138 = DIRECTION ( 'NONE',  ( 1.000000000000000000, 0.000000000000000000, -3.491481338843133355E-15 ) ) ;
#139 = ADVANCED_FACE ( 'NONE', ( #136 ), #237, .T. ) ;
#140 = DIRECTION ( 'NONE',  ( -3.491481338843133355E-15, 1.224646799147341374E-16, -1.000000000000000000 ) ) ;
#141 = DIRECTION ( 'NONE',  ( 3.491481338843133355E-15, -0.000000000000000000, 1.000000000000000000 ) ) ;
#142 = PRODUCT_DEFINITION_SHAPE ( 'NONE', 'NONE',  #319 ) ;
#143 = AXIS2_PLACEMENT_3D ( 'NONE', #197, #144, #38 ) ;
#144 = DIRECTION ( 'NONE',  ( -3.491481338843133355E-15, 0.000000000000000000, -1.000000000000000000 ) ) ;
#145 = CLOSED_SHELL ( 'NONE', ( #146, #139, #279, #181 ) ) ;
#146 = ADVANCED_FACE ( 'NONE', ( #5 ), #105, .T. ) ;
#147 = DIRECTION ( 'NONE',  ( 1.000000000000000000, 0.000000000000000000, -3.513364001978345245E-15 ) ) ;
#148 = ORIENTED_EDGE ( 'NONE', *, *, #100, .T. ) ;
#149 = VERTEX_POINT ( 'NONE', #322 ) ;
#150 = EDGE_LOOP ( 'NONE', ( #228, #51, #82, #310 ) ) ;
#151 = MECHANICAL_DESIGN_GEOMETRIC_PRESENTATION_REPRESENTATION (  '', ( #249 ), #182 ) ;
#152 = VERTEX_POINT ( 'NONE', #34 ) ;
#153 = EDGE_LOOP ( 'NONE', ( #76, #22 ) ) ;
#154 = AXIS2_PLACEMENT_3D ( 'NONE', #23, #207, #52 ) ;
#155 = EDGE_CURVE ( 'NONE', #336, #311, #191, .T. ) ;
#156 = DIRECTION ( 'NONE',  ( 0.000000000000000000, 1.000000000000000000, 0.000000000000000000 ) ) ;
#157 = CARTESIAN_POINT ( 'NONE',  ( 0.000000000000000000, 0.000000000000000000, 0.000000000000000000 ) ) ;
#158 = SURFACE_SIDE_STYLE ('',( #179 ) ) ;
#159 = ORIENTED_EDGE ( 'NONE', *, *, #55, .F. ) ;
#160 = DIRECTION ( 'NONE',  ( 3.491481338843133355E-15, -1.224646799147353207E-16, 1.000000000000000000 ) ) ;
#161 = VERTEX_POINT ( 'NONE', #166 ) ;
#162 = DIRECTION ( 'NONE',  ( 3.491481338843133355E-15, -0.000000000000000000, 1.000000000000000000 ) ) ;
#163 = CIRCLE ( 'NONE', #17, 3.999999999999992450 ) ;
#164 = ORIENTED_EDGE ( 'NONE', *, *, #271, .T. ) ;
#165 = EDGE_CURVE ( 'NONE', #2, #161, #268, .T. ) ;
#166 = CARTESIAN_POINT ( 'NONE',  ( 6.794065285831244150E-14, 3.949999999999997957, 19.24999999999999645 ) ) ;
#167 = ADVANCED_FACE ( 'NONE', ( #134 ), #8, .T. ) ;
#168 = PRESENTATION_LAYER_ASSIGNMENT (  '', '', ( #320 ) ) ;
#169 = DIRECTION ( 'NONE',  ( 3.491481338843133355E-15, -1.224646799147353207E-16, 1.000000000000000000 ) ) ;
#170 = DIRECTION ( 'NONE',  ( 3.491481338843133355E-15, -0.000000000000000000, 1.000000000000000000 ) ) ;
#171 = CARTESIAN_POINT ( 'NONE',  ( 0.000000000000000000, 0.000000000000000000, 0.000000000000000000 ) ) ;
#172 = CIRCLE ( 'NONE', #217, 3.999999999999994671 ) ;
#173 = SURFACE_SIDE_STYLE ('',( #68 ) ) ;
#174 = PRODUCT_DEFINITION_CONTEXT ( 'detailed design', #340, 'design' ) ;
#175 = VECTOR ( 'NONE', #255, 1000.000000000000000 ) ;
#176 = EDGE_CURVE ( 'NONE', #278, #202, #83, .T. ) ;
#177 =( NAMED_UNIT ( * ) SI_UNIT ( $, .STERADIAN. ) SOLID_ANGLE_UNIT ( ) );
#178 =( LENGTH_UNIT ( ) NAMED_UNIT ( * ) SI_UNIT ( .MILLI., .METRE. ) );
#179 = SURFACE_STYLE_FILL_AREA ( #73 ) ;
#180 = ORIENTED_EDGE ( 'NONE', *, *, #9, .F. ) ;
#181 = ADVANCED_FACE ( 'NONE', ( #108 ), #190, .F. ) ;
#182 =( GEOMETRIC_REPRESENTATION_CONTEXT ( 3 ) GLOBAL_UNCERTAINTY_ASSIGNED_CONTEXT ( ( #306 ) ) GLOBAL_UNIT_ASSIGNED_CONTEXT ( ( #97, #95, #250 ) ) REPRESENTATION_CONTEXT ( 'NONE', 'WORKASPACE' ) );
#183 = CIRCLE ( 'NONE', #32, 3.949999999999997957 ) ;
#184 = DIRECTION ( 'NONE',  ( 3.491481338843133355E-15, -0.000000000000000000, 1.000000000000000000 ) ) ;
#185 = CARTESIAN_POINT ( 'NONE',  ( 6.721101577273030131E-14, -2.357445088358654363E-15, 19.24999999999999645 ) ) ;
#186 = CARTESIAN_POINT ( 'NONE',  ( 3.950000000000064571, 0.000000000000000000, 19.24999999999998224 ) ) ;
#187 = DIRECTION ( 'NONE',  ( 1.000000000000000000, 0.000000000000000000, -3.513364001978344456E-15 ) ) ;
#188 = EDGE_CURVE ( 'NONE', #152, #336, #243, .T. ) ;
#189 = PRODUCT_DEFINITION_FORMATION_WITH_SPECIFIED_SOURCE ( 'ANY', '', #12, .NOT_KNOWN. ) ;
#190 = PLANE ( 'NONE',  #60 ) ;
#191 = CIRCLE ( 'NONE', #239, 3.999999999999994671 ) ;
#192 = DIRECTION ( 'NONE',  ( -3.491481338843133355E-15, 1.224646799147353207E-16, -1.000000000000000000 ) ) ;
#193 = VECTOR ( 'NONE', #162, 1000.000000000000000 ) ;
#194 = PLANE ( 'NONE',  #143 ) ;
#195 = CONICAL_SURFACE ( 'NONE', #272, 3.999999999999994671, 0.7853981633974433940 ) ;
#196 = AXIS2_PLACEMENT_3D ( 'NONE', #157, #209, #264 ) ;
#197 = CARTESIAN_POINT ( 'NONE',  ( 6.721101577273030131E-14, 3.949999999999997957, 19.24999999999999645 ) ) ;
#198 = PRODUCT_CONTEXT ( 'NONE', #26, 'mechanical' ) ;
#199 = FILL_AREA_STYLE_COLOUR ( '', #45 ) ;
#200 = CARTESIAN_POINT ( 'NONE',  ( 0.000000000000000000, 0.000000000000000000, 0.000000000000000000 ) ) ;
#201 = EDGE_CURVE ( 'NONE', #336, #96, #223, .T. ) ;
#202 = VERTEX_POINT ( 'NONE', #224 ) ;
#203 = DIRECTION ( 'NONE',  ( 4.275831445896958607E-31, 1.000000000000000000, 1.224646799147353207E-16 ) ) ;
#204 = ORIENTED_EDGE ( 'NONE', *, *, #201, .T. ) ;
#205 = COLOUR_RGB ( '',1.000000000000000000, 1.000000000000000000, 1.000000000000000000 ) ;
#206 = CIRCLE ( 'NONE', #321, 3.950000000000000178 ) ;
#207 = DIRECTION ( 'NONE',  ( 3.491481338843133355E-15, -0.000000000000000000, 1.000000000000000000 ) ) ;
#208 = EDGE_CURVE ( 'NONE', #149, #79, #115, .T. ) ;
#209 = DIRECTION ( 'NONE',  ( -3.491481338843133355E-15, 1.224646799147353207E-16, -1.000000000000000000 ) ) ;
#210 = ORIENTED_EDGE ( 'NONE', *, *, #271, .F. ) ;
#211 = CARTESIAN_POINT ( 'NONE',  ( 6.721101577273030131E-14, -2.357445088358654363E-15, 19.24999999999999645 ) ) ;
#212 = DIRECTION ( 'NONE',  ( 3.491481338843133355E-15, -1.224646799147353207E-16, 1.000000000000000000 ) ) ;
#213 = CARTESIAN_POINT ( 'NONE',  ( 2.171701392760428316E-13, -7.617303090696535366E-15, 62.19999999999998153 ) ) ;
#214 = CARTESIAN_POINT ( 'NONE',  ( 6.721101577273030131E-14, 0.000000000000000000, 19.24999999999999645 ) ) ;
#215 = ORIENTED_EDGE ( 'NONE', *, *, #235, .T. ) ;
#216 = DIRECTION ( 'NONE',  ( -2.382254525458728908E-15, -0.7071067811865440200, -0.7071067811865511255 ) ) ;
#217 = AXIS2_PLACEMENT_3D ( 'NONE', #324, #140, #118 ) ;
#218 = DIRECTION ( 'NONE',  ( 3.491481338843133355E-15, -1.224646799147353207E-16, 1.000000000000000000 ) ) ;
#219 = LINE ( 'NONE', #93, #4 ) ;
#220 = CIRCLE ( 'NONE', #25, 3.199999999999986855 ) ;
#221 = FACE_OUTER_BOUND ( 'NONE', #259, .T. ) ;
#222 = EDGE_CURVE ( 'NONE', #254, #96, #304, .T. ) ;
#223 = LINE ( 'NONE', #274, #262 ) ;
#224 = CARTESIAN_POINT ( 'NONE',  ( -3.949999999999930900, 4.837354856632043085E-16, 19.25000000000001066 ) ) ;
#225 = ORIENTED_EDGE ( 'NONE', *, *, #176, .F. ) ;
#226 = CARTESIAN_POINT ( 'NONE',  ( 1.710332578358781341E-30, 3.999999999999994671, 4.898587196589406912E-16 ) ) ;
#227 = EDGE_LOOP ( 'NONE', ( #122, #256, #308, #20 ) ) ;
#228 = ORIENTED_EDGE ( 'NONE', *, *, #188, .F. ) ;
#229 = LINE ( 'NONE', #27, #295 ) ;
#230 = AXIS2_PLACEMENT_3D ( 'NONE', #16, #218, #297 ) ;
#231 = ORIENTED_EDGE ( 'NONE', *, *, #263, .F. ) ;
#232 = DIRECTION ( 'NONE',  ( -3.491481338843133355E-15, 1.224646799147353207E-16, -1.000000000000000000 ) ) ;
#233 = STYLED_ITEM ( 'NONE', ( #78 ), #104 ) ;
#234 = CARTESIAN_POINT ( 'NONE',  ( 6.745385575565134973E-14, -3.950000000000002842, 19.24999999999999645 ) ) ;
#235 = EDGE_CURVE ( 'NONE', #96, #254, #163, .T. ) ;
#236 = ORIENTED_EDGE ( 'NONE', *, *, #176, .T. ) ;
#237 = CYLINDRICAL_SURFACE ( 'NONE', #128, 3.949999999999998845 ) ;
#238 = ORIENTED_EDGE ( 'NONE', *, *, #165, .F. ) ;
#239 = AXIS2_PLACEMENT_3D ( 'NONE', #213, #317, #81 ) ;
#240 = PRODUCT_RELATED_PRODUCT_CATEGORY ( 'part', '', ( #12 ) ) ;
#241 = LINE ( 'NONE', #290, #135 ) ;
#242 = CARTESIAN_POINT ( 'NONE',  ( 2.199633243471174140E-13, -7.715274834628325378E-15, 63.00000000000000000 ) ) ;
#243 = LINE ( 'NONE', #10, #326 ) ;
#244 = ORIENTED_EDGE ( 'NONE', *, *, #313, .F. ) ;
#245 = UNCERTAINTY_MEASURE_WITH_UNIT (LENGTH_MEASURE( 1.000000000000000082E-05 ), #131, 'distance_accuracy_value', 'NONE');
#246 = DIRECTION ( 'NONE',  ( 3.491481338843133355E-15, -0.000000000000000000, 1.000000000000000000 ) ) ;
#247 = CYLINDRICAL_SURFACE ( 'NONE', #112, 3.999999999999994671 ) ;
#248 = EDGE_CURVE ( 'NONE', #102, #311, #219, .T. ) ;
#249 = STYLED_ITEM ( 'NONE', ( #300 ), #86 ) ;
#250 =( NAMED_UNIT ( * ) SI_UNIT ( $, .STERADIAN. ) SOLID_ANGLE_UNIT ( ) );
#251 = AXIS2_PLACEMENT_3D ( 'NONE', #185, #160, #266 ) ;
#252 = CARTESIAN_POINT ( 'NONE',  ( 1.429232762269665176E-13, -4.000000000000002665, 62.19999999999998153 ) ) ;
#253 = CARTESIAN_POINT ( 'NONE',  ( 1.424334175073076275E-13, 3.999999999999987121, 62.19999999999998153 ) ) ;
#254 = VERTEX_POINT ( 'NONE', #327 ) ;
#255 = DIRECTION ( 'NONE',  ( -3.491481338843133355E-15, 1.224646799147353207E-16, -1.000000000000000000 ) ) ;
#256 = ORIENTED_EDGE ( 'NONE', *, *, #155, .T. ) ;
#257 = MECHANICAL_DESIGN_GEOMETRIC_PRESENTATION_REPRESENTATION (  '', ( #320 ), #59 ) ;
#258 = DIRECTION ( 'NONE',  ( -3.491481338843133355E-15, 1.224646799147341374E-16, -1.000000000000000000 ) ) ;
#259 = EDGE_LOOP ( 'NONE', ( #318, #238, #88, #215 ) ) ;
#260 = SURFACE_STYLE_USAGE ( .BOTH. , #158 ) ;
#261 = CARTESIAN_POINT ( 'NONE',  ( 6.721101577273030131E-14, 0.000000000000000000, 19.24999999999999645 ) ) ;
#262 = VECTOR ( 'NONE', #330, 1000.000000000000000 ) ;
#263 = EDGE_CURVE ( 'NONE', #278, #149, #206, .T. ) ;
#264 = DIRECTION ( 'NONE',  ( 4.275831445896959482E-31, 1.000000000000000000, 1.224646799147353454E-16 ) ) ;
#265 = MECHANICAL_DESIGN_GEOMETRIC_PRESENTATION_REPRESENTATION (  '', ( #233 ), #328 ) ;
#266 = DIRECTION ( 'NONE',  ( 0.000000000000000000, -1.000000000000000000, 0.000000000000000000 ) ) ;
#267 = CARTESIAN_POINT ( 'NONE',  ( 6.721101577273030131E-14, -2.357445088358654363E-15, 19.24999999999999645 ) ) ;
#268 = CIRCLE ( 'NONE', #90, 3.950000000000000178 ) ;
#269 = FACE_OUTER_BOUND ( 'NONE', #334, .T. ) ;
#270 = CARTESIAN_POINT ( 'NONE',  ( -3.949999999999931788, 4.837354856632043085E-16, 19.25000000000001066 ) ) ;
#271 = EDGE_CURVE ( 'NONE', #202, #79, #183, .T. ) ;
#272 = AXIS2_PLACEMENT_3D ( 'NONE', #343, #258, #337 ) ;
#273 = DIRECTION ( 'NONE',  ( 4.275831445896959482E-31, 1.000000000000000000, 1.224646799147353454E-16 ) ) ;
#274 = CARTESIAN_POINT ( 'NONE',  ( 4.898587196589389163E-16, -3.999999999999994671, -4.898587196589422689E-16 ) ) ;
#275 = CARTESIAN_POINT ( 'NONE',  ( 6.769669573857241076E-14, -2.374480448363631705E-15, 19.38910427085456689 ) ) ;
#276 = PRESENTATION_STYLE_ASSIGNMENT (( #37 ) ) ;
#277 = DIRECTION ( 'NONE',  ( 0.000000000000000000, 0.000000000000000000, 1.000000000000000000 ) ) ;
#278 = VERTEX_POINT ( 'NONE', #91 ) ;
#279 = ADVANCED_FACE ( 'NONE', ( #92 ), #194, .F. ) ;
#280 =( NAMED_UNIT ( * ) SI_UNIT ( $, .STERADIAN. ) SOLID_ANGLE_UNIT ( ) );
#281 = CARTESIAN_POINT ( 'NONE',  ( 1.429232762269665176E-13, -3.999999999999994671, 19.38910427085456689 ) ) ;
#282 = VECTOR ( 'NONE', #141, 1000.000000000000000 ) ;
#283 = ORIENTED_EDGE ( 'NONE', *, *, #248, .F. ) ;
#284 = DIRECTION ( 'NONE',  ( 0.000000000000000000, 1.000000000000000000, 0.000000000000000000 ) ) ;
#285 = ADVANCED_FACE ( 'NONE', ( #296 ), #247, .T. ) ;
#286 = PLANE ( 'NONE',  #80 ) ;
#287 = CARTESIAN_POINT ( 'NONE',  ( 2.171701392760428316E-13, -7.617303090696535366E-15, 62.19999999999998153 ) ) ;
#288 = CARTESIAN_POINT ( 'NONE',  ( 2.199633243471174140E-13, -7.715274834628325378E-15, 63.00000000000000000 ) ) ;
#289 = EDGE_LOOP ( 'NONE', ( #21, #236, #291, #132 ) ) ;
#290 = CARTESIAN_POINT ( 'NONE',  ( 6.769475125839350641E-14, 3.949999999999997957, 19.24999999999999645 ) ) ;
#291 = ORIENTED_EDGE ( 'NONE', *, *, #100, .F. ) ;
#292 = AXIS2_PLACEMENT_3D ( 'NONE', #111, #61, #314 ) ;
#293 = CARTESIAN_POINT ( 'NONE',  ( -4.275831445896956855E-31, 3.950000000000000178, -1.224646799147352961E-16 ) ) ;
#294 = DIRECTION ( 'NONE',  ( -3.491481338843133355E-15, 1.224646799147353207E-16, -1.000000000000000000 ) ) ;
#295 = VECTOR ( 'NONE', #339, 1000.000000000000000 ) ;
#296 = FACE_OUTER_BOUND ( 'NONE', #11, .T. ) ;
#297 = DIRECTION ( 'NONE',  ( 0.000000000000000000, -1.000000000000000000, 0.000000000000000000 ) ) ;
#298 = APPLICATION_PROTOCOL_DEFINITION ( 'draft international standard', 'automotive_design', 1998, #340 ) ;
#299 = FILL_AREA_STYLE ('',( #199 ) ) ;
#300 = PRESENTATION_STYLE_ASSIGNMENT (( #333 ) ) ;
#301 = EDGE_LOOP ( 'NONE', ( #84, #48, #244, #283 ) ) ;
#302 = FACE_OUTER_BOUND ( 'NONE', #301, .T. ) ;
#303 = PRESENTATION_LAYER_ASSIGNMENT (  '', '', ( #249 ) ) ;
#304 = CIRCLE ( 'NONE', #87, 3.999999999999992450 ) ;
#305 = EDGE_CURVE ( 'NONE', #152, #102, #40, .T. ) ;
#306 = UNCERTAINTY_MEASURE_WITH_UNIT (LENGTH_MEASURE( 1.000000000000000082E-05 ), #97, 'distance_accuracy_value', 'NONE');
#307 = FACE_OUTER_BOUND ( 'NONE', #227, .T. ) ;
#308 = ORIENTED_EDGE ( 'NONE', *, *, #9, .T. ) ;
#309 = ORIENTED_EDGE ( 'NONE', *, *, #263, .T. ) ;
#310 = ORIENTED_EDGE ( 'NONE', *, *, #155, .F. ) ;
#311 = VERTEX_POINT ( 'NONE', #253 ) ;
#312 = ORIENTED_EDGE ( 'NONE', *, *, #222, .T. ) ;
#313 = EDGE_CURVE ( 'NONE', #311, #336, #172, .T. ) ;
#314 = DIRECTION ( 'NONE',  ( 1.000000000000000000, 0.000000000000000000, -3.513364001978344456E-15 ) ) ;
#315 = CONICAL_SURFACE ( 'NONE', #106, 3.999999999999994671, 0.7853981633974433940 ) ;
#316 = DIRECTION ( 'NONE',  ( -4.275831445896958607E-31, -1.000000000000000000, -1.224646799147353207E-16 ) ) ;
#317 = DIRECTION ( 'NONE',  ( -3.491481338843133355E-15, 1.224646799147341374E-16, -1.000000000000000000 ) ) ;
#318 = ORIENTED_EDGE ( 'NONE', *, *, #126, .F. ) ;
#319 = PRODUCT_DEFINITION ( 'UNKNOWN', '', #189, #174 ) ;
#320 = STYLED_ITEM ( 'NONE', ( #276 ), #338 ) ;
#321 = AXIS2_PLACEMENT_3D ( 'NONE', #171, #170, #39 ) ;
#322 = CARTESIAN_POINT ( 'NONE',  ( 3.950000000000000178, 0.000000000000000000, -1.379135128843037675E-14 ) ) ;
#323 = CLOSED_SHELL ( 'NONE', ( #41, #110, #285, #43, #167, #77, #335, #33 ) ) ;
#324 = CARTESIAN_POINT ( 'NONE',  ( 2.171701392760428316E-13, -7.617303090696535366E-15, 62.19999999999998153 ) ) ;
#325 = DIRECTION ( 'NONE',  ( -3.491481338843133355E-15, 1.224646799147353207E-16, -1.000000000000000000 ) ) ;
#326 = VECTOR ( 'NONE', #216, 1000.000000000000000 ) ;
#327 = CARTESIAN_POINT ( 'NONE',  ( 6.769669573857241076E-14, 3.999999999999989786, 19.38910427085456689 ) ) ;
#328 =( GEOMETRIC_REPRESENTATION_CONTEXT ( 3 ) GLOBAL_UNCERTAINTY_ASSIGNED_CONTEXT ( ( #245 ) ) GLOBAL_UNIT_ASSIGNED_CONTEXT ( ( #131, #1, #29 ) ) REPRESENTATION_CONTEXT ( 'NONE', 'WORKASPACE' ) );
#329 = APPLICATION_PROTOCOL_DEFINITION ( 'draft international standard', 'automotive_design', 1998, #26 ) ;
#330 = DIRECTION ( 'NONE',  ( -3.491481338843133355E-15, 1.224646799147353207E-16, -1.000000000000000000 ) ) ;
#331 = FILL_AREA_STYLE_COLOUR ( '', #205 ) ;
#332 = CARTESIAN_POINT ( 'NONE',  ( 3.950000000000065459, 0.000000000000000000, 19.24999999999998224 ) ) ;
#333 = SURFACE_STYLE_USAGE ( .BOTH. , #44 ) ;
#334 = EDGE_LOOP ( 'NONE', ( #103, #72, #312, #124 ) ) ;
#335 = ADVANCED_FACE ( 'NONE', ( #221 ), #342, .T. ) ;
#336 = VERTEX_POINT ( 'NONE', #252 ) ;
#337 = DIRECTION ( 'NONE',  ( 0.000000000000000000, 1.000000000000000000, 0.000000000000000000 ) ) ;
#338 = MANIFOLD_SOLID_BREP ( 'Corps-Déplacer/Copier1[2]', #145 ) ;
#339 = DIRECTION ( 'NONE',  ( 3.285674118869264182E-15, -0.3382550599108802847, 0.9410544694355831297 ) ) ;
#340 = APPLICATION_CONTEXT ( 'automotive_design' ) ;
#341 = DIRECTION ( 'NONE',  ( -3.491481338843133355E-15, 1.224646799147341374E-16, -1.000000000000000000 ) ) ;
#342 = CONICAL_SURFACE ( 'NONE', #15, 3.950000000000000178, 0.3450620389298171831 ) ;
#343 = CARTESIAN_POINT ( 'NONE',  ( 2.171701392760428316E-13, -7.617303090696535366E-15, 62.19999999999998153 ) ) ;
ENDSEC;
END-ISO-10303-21;
