ISO-10303-21;
HEADER;
FILE_DESCRIPTION (( 'STEP AP214' ),
    '1' );
FILE_NAME ('57006.step',
    '2024-04-04T09:56:09',
    ( '' ),
    ( '' ),
    'SwSTEP 2.0',
    'SolidWorks 2022',
    '' );
FILE_SCHEMA (( 'AUTOMOTIVE_DESIGN' ));
ENDSEC;

DATA;
#1 = CARTESIAN_POINT ( 'NONE',  ( 1.047444401652940007E-13, 5.949999999999996625, 30.00000000000000000 ) ) ;
#2 = DIRECTION ( 'NONE',  ( 0.000000000000000000, 1.000000000000000000, 0.000000000000000000 ) ) ;
#3 = PLANE ( 'NONE',  #145 ) ;
#4 = CONICAL_SURFACE ( 'NONE', #182, 5.950000000000000178, 0.3450620389298179047 ) ;
#5 = EDGE_CURVE ( 'NONE', #299, #331, #21, .T. ) ;
#6 = PRODUCT_DEFINITION_FORMATION_WITH_SPECIFIED_SOURCE ( 'ANY', '', #126, .NOT_KNOWN. ) ;
#7 = PRESENTATION_STYLE_ASSIGNMENT (( #36 ) ) ;
#8 = AXIS2_PLACEMENT_3D ( 'NONE', #341, #103, #263 ) ;
#9 = ORIENTED_EDGE ( 'NONE', *, *, #151, .T. ) ;
#10 = VERTEX_POINT ( 'NONE', #288 ) ;
#11 = VECTOR ( 'NONE', #158, 1000.000000000000000 ) ;
#12 = CARTESIAN_POINT ( 'NONE',  ( 0.000000000000000000, 0.000000000000000000, 0.000000000000000000 ) ) ;
#13 = DIRECTION ( 'NONE',  ( -2.468850131082271260E-15, 0.7071067811865459074, -0.7071067811865491270 ) ) ;
#14 = EDGE_LOOP ( 'NONE', ( #166, #262, #24, #277 ) ) ;
#15 = CONICAL_SURFACE ( 'NONE', #136, 5.950000000000000178, 0.3450620389298179047 ) ;
#16 = CARTESIAN_POINT ( 'NONE',  ( 7.347880794884092126E-16, -5.999999999999998224, -7.347880794884142416E-16 ) ) ;
#17 = CARTESIAN_POINT ( 'NONE',  ( 1.954166468242522345E-13, 5.999999999999987566, 81.80000000000001137 ) ) ;
#18 = SURFACE_SIDE_STYLE ('',( #289 ) ) ;
#19 = EDGE_CURVE ( 'NONE', #78, #130, #128, .T. ) ;
#20 = VECTOR ( 'NONE', #168, 1000.000000000000000 ) ;
#21 = CIRCLE ( 'NONE', #260, 4.800000000000011369 ) ;
#22 = DIRECTION ( 'NONE',  ( -3.491481338843133355E-15, 1.224646799147347537E-16, -1.000000000000000000 ) ) ;
#23 = ORIENTED_EDGE ( 'NONE', *, *, #275, .F. ) ;
#24 = ORIENTED_EDGE ( 'NONE', *, *, #266, .T. ) ;
#25 = PRESENTATION_STYLE_ASSIGNMENT (( #170 ) ) ;
#26 = FILL_AREA_STYLE ('',( #86 ) ) ;
#27 = EDGE_CURVE ( 'NONE', #331, #299, #222, .T. ) ;
#28 = DIRECTION ( 'NONE',  ( 3.491481338843133355E-15, -1.224646799147353207E-16, 1.000000000000000000 ) ) ;
#29 = CIRCLE ( 'NONE', #194, 5.999999999999998224 ) ;
#30 = EDGE_CURVE ( 'NONE', #79, #120, #67, .T. ) ;
#31 = SURFACE_STYLE_FILL_AREA ( #153 ) ;
#32 = ADVANCED_FACE ( 'NONE', ( #333 ), #127, .T. ) ;
#33 =( NAMED_UNIT ( * ) SI_UNIT ( $, .STERADIAN. ) SOLID_ANGLE_UNIT ( ) );
#34 = CONICAL_SURFACE ( 'NONE', #125, 5.999999999999998224, 0.7853981633974458365 ) ;
#35 = CARTESIAN_POINT ( 'NONE',  ( 2.856031735173683463E-13, -1.001761081702535121E-14, 81.80000000000001137 ) ) ;
#36 = SURFACE_STYLE_USAGE ( .BOTH. , #303 ) ;
#37 = AXIS2_PLACEMENT_3D ( 'NONE', #253, #175, #70 ) ;
#38 = APPLICATION_PROTOCOL_DEFINITION ( 'draft international standard', 'automotive_design', 1998, #297 ) ;
#39 = CIRCLE ( 'NONE', #148, 5.999999999999998224 ) ;
#40 = DIRECTION ( 'NONE',  ( 0.000000000000000000, -1.000000000000000000, 0.000000000000000000 ) ) ;
#41 = CARTESIAN_POINT ( 'NONE',  ( 1.047444401652940007E-13, 0.000000000000000000, 30.00000000000000000 ) ) ;
#42 = EDGE_LOOP ( 'NONE', ( #326, #93, #178, #23 ) ) ;
#43 = AXIS2_PLACEMENT_3D ( 'NONE', #338, #285, #74 ) ;
#44 = CLOSED_SHELL ( 'NONE', ( #105, #100, #171, #224, #32, #92, #197, #329 ) ) ;
#45 = DIRECTION ( 'NONE',  ( 4.275831445896958607E-31, 1.000000000000000000, 1.224646799147353207E-16 ) ) ;
#46 = VERTEX_POINT ( 'NONE', #307 ) ;
#47 =( GEOMETRIC_REPRESENTATION_CONTEXT ( 3 ) GLOBAL_UNCERTAINTY_ASSIGNED_CONTEXT ( ( #300 ) ) GLOBAL_UNIT_ASSIGNED_CONTEXT ( ( #55, #247, #248 ) ) REPRESENTATION_CONTEXT ( 'NONE', 'WORKASPACE' ) );
#48 = FILL_AREA_STYLE_COLOUR ( '', #284 ) ;
#49 = EDGE_CURVE ( 'NONE', #71, #79, #29, .T. ) ;
#50 = DIRECTION ( 'NONE',  ( -3.491481338843133355E-15, 1.224646799147353207E-16, -1.000000000000000000 ) ) ;
#51 = DIRECTION ( 'NONE',  ( 0.000000000000000000, -1.000000000000000000, 0.000000000000000000 ) ) ;
#52 = DIRECTION ( 'NONE',  ( 0.000000000000000000, 1.000000000000000000, 0.000000000000000000 ) ) ;
#53 = ADVANCED_BREP_SHAPE_REPRESENTATION ( '57006', ( #212, #328, #319 ), #180 ) ;
#54 = PRODUCT_RELATED_PRODUCT_CATEGORY ( 'part', '', ( #126 ) ) ;
#55 =( LENGTH_UNIT ( ) NAMED_UNIT ( * ) SI_UNIT ( .MILLI., .METRE. ) );
#56 = APPLICATION_CONTEXT ( 'automotive_design' ) ;
#57 = DIRECTION ( 'NONE',  ( 3.285674118869263394E-15, -0.3382550599108810063, 0.9410544694355829076 ) ) ;
#58 = SURFACE_STYLE_FILL_AREA ( #26 ) ;
#59 = AXIS2_PLACEMENT_3D ( 'NONE', #279, #233, #336 ) ;
#60 = UNCERTAINTY_MEASURE_WITH_UNIT (LENGTH_MEASURE( 1.000000000000000082E-05 ), #205, 'distance_accuracy_value', 'NONE');
#61 = AXIS2_PLACEMENT_3D ( 'NONE', #217, #295, #143 ) ;
#62 = PRODUCT_DEFINITION ( 'UNKNOWN', '', #6, #231 ) ;
#63 = CLOSED_SHELL ( 'NONE', ( #287, #162, #324, #114 ) ) ;
#64 = VERTEX_POINT ( 'NONE', #149 ) ;
#65 = EDGE_CURVE ( 'NONE', #78, #75, #254, .T. ) ;
#66 =( LENGTH_UNIT ( ) NAMED_UNIT ( * ) SI_UNIT ( .MILLI., .METRE. ) );
#67 = LINE ( 'NONE', #16, #11 ) ;
#68 = ORIENTED_EDGE ( 'NONE', *, *, #339, .T. ) ;
#69 = DIRECTION ( 'NONE',  ( 3.327098416510789582E-15, 0.3382550599108808398, 0.9410544694355830186 ) ) ;
#70 = DIRECTION ( 'NONE',  ( 1.000000000000000000, 0.000000000000000000, -3.491481338843133355E-15 ) ) ;
#71 = VERTEX_POINT ( 'NONE', #17 ) ;
#72 = CARTESIAN_POINT ( 'NONE',  ( 2.863379615968567067E-13, -6.000000000000008882, 81.80000000000001137 ) ) ;
#73 = AXIS2_PLACEMENT_3D ( 'NONE', #245, #213, #52 ) ;
#74 = DIRECTION ( 'NONE',  ( 1.000000000000000000, 0.000000000000000000, -3.491481338843133355E-15 ) ) ;
#75 = VERTEX_POINT ( 'NONE', #121 ) ;
#76 = DIRECTION ( 'NONE',  ( 1.000000000000000000, 0.000000000000000000, -3.498601968356587901E-15 ) ) ;
#77 = EDGE_CURVE ( 'NONE', #264, #46, #230, .T. ) ;
#78 = VERTEX_POINT ( 'NONE', #176 ) ;
#79 = VERTEX_POINT ( 'NONE', #154 ) ;
#80 = CARTESIAN_POINT ( 'NONE',  ( -5.949999999999891820, 7.286648454926749007E-16, 30.00000000000002132 ) ) ;
#81 = EDGE_LOOP ( 'NONE', ( #198, #317 ) ) ;
#82 = AXIS2_PLACEMENT_3D ( 'NONE', #228, #229, #95 ) ;
#83 = VECTOR ( 'NONE', #13, 1000.000000000000114 ) ;
#84 = FACE_OUTER_BOUND ( 'NONE', #99, .T. ) ;
#85 = ORIENTED_EDGE ( 'NONE', *, *, #191, .F. ) ;
#86 = FILL_AREA_STYLE_COLOUR ( '', #313 ) ;
#87 = LINE ( 'NONE', #293, #118 ) ;
#88 = CARTESIAN_POINT ( 'NONE',  ( 2.856031735173683463E-13, -1.001761081702535121E-14, 81.80000000000001137 ) ) ;
#89 = MECHANICAL_DESIGN_GEOMETRIC_PRESENTATION_REPRESENTATION (  '', ( #274 ), #173 ) ;
#90 = PRESENTATION_LAYER_ASSIGNMENT (  '', '', ( #167 ) ) ;
#91 = CIRCLE ( 'NONE', #298, 5.950000000000000178 ) ;
#92 = ADVANCED_FACE ( 'NONE', ( #225 ), #129, .T. ) ;
#93 = ORIENTED_EDGE ( 'NONE', *, *, #30, .T. ) ;
#94 = ORIENTED_EDGE ( 'NONE', *, *, #116, .T. ) ;
#95 = DIRECTION ( 'NONE',  ( 0.000000000000000000, 1.000000000000000000, 0.000000000000000000 ) ) ;
#96 = UNCERTAINTY_MEASURE_WITH_UNIT (LENGTH_MEASURE( 1.000000000000000082E-05 ), #66, 'distance_accuracy_value', 'NONE');
#97 = PRESENTATION_STYLE_ASSIGNMENT (( #240 ) ) ;
#98 = ORIENTED_EDGE ( 'NONE', *, *, #216, .T. ) ;
#99 = EDGE_LOOP ( 'NONE', ( #244, #210 ) ) ;
#100 = ADVANCED_FACE ( 'NONE', ( #113 ), #15, .T. ) ;
#101 = ORIENTED_EDGE ( 'NONE', *, *, #273, .F. ) ;
#102 = UNCERTAINTY_MEASURE_WITH_UNIT (LENGTH_MEASURE( 1.000000000000000082E-05 ), #119, 'distance_accuracy_value', 'NONE');
#103 = DIRECTION ( 'NONE',  ( 3.491481338843133355E-15, -0.000000000000000000, 1.000000000000000000 ) ) ;
#104 = VECTOR ( 'NONE', #69, 999.9999999999998863 ) ;
#105 = ADVANCED_FACE ( 'NONE', ( #323 ), #34, .T. ) ;
#106 = ORIENTED_EDGE ( 'NONE', *, *, #266, .F. ) ;
#107 = DIRECTION ( 'NONE',  ( 3.491481338843133355E-15, -1.224646799147353207E-16, 1.000000000000000000 ) ) ;
#108 = CARTESIAN_POINT ( 'NONE',  ( 0.000000000000000000, 0.000000000000000000, 0.000000000000000000 ) ) ;
#109 = CARTESIAN_POINT ( 'NONE',  ( 2.883593715922138239E-13, -4.800000000000022027, 83.00000000000000000 ) ) ;
#110 = MECHANICAL_DESIGN_GEOMETRIC_PRESENTATION_REPRESENTATION (  '', ( #167 ), #199 ) ;
#111 = CIRCLE ( 'NONE', #332, 5.949999999999996625 ) ;
#112 = DIRECTION ( 'NONE',  ( -3.491481338843133355E-15, 0.000000000000000000, -1.000000000000000000 ) ) ;
#113 = FACE_OUTER_BOUND ( 'NONE', #122, .T. ) ;
#114 = ADVANCED_FACE ( 'NONE', ( #282 ), #237, .F. ) ;
#115 = AXIS2_PLACEMENT_3D ( 'NONE', #146, #221, #40 ) ;
#116 = EDGE_CURVE ( 'NONE', #331, #79, #259, .T. ) ;
#117 = AXIS2_PLACEMENT_3D ( 'NONE', #321, #22, #2 ) ;
#118 = VECTOR ( 'NONE', #57, 1000.000000000000000 ) ;
#119 =( LENGTH_UNIT ( ) NAMED_UNIT ( * ) SI_UNIT ( .MILLI., .METRE. ) );
#120 = VERTEX_POINT ( 'NONE', #161 ) ;
#121 = CARTESIAN_POINT ( 'NONE',  ( 5.950000000000000178, 0.000000000000000000, -2.077431396611664346E-14 ) ) ;
#122 = EDGE_LOOP ( 'NONE', ( #340, #335, #186, #241 ) ) ;
#123 = DIRECTION ( 'NONE',  ( -1.509903313490213211E-14, -1.000000000000000000, 0.000000000000000000 ) ) ;
#124 = CARTESIAN_POINT ( 'NONE',  ( 1.057190066107056111E-13, 5.949999999999996625, 30.00000000000000000 ) ) ;
#125 = AXIS2_PLACEMENT_3D ( 'NONE', #88, #156, #179 ) ;
#126 = PRODUCT ( '57006', '57006', '', ( #304 ) ) ;
#127 = PLANE ( 'NONE',  #59 ) ;
#128 = LINE ( 'NONE', #203, #196 ) ;
#129 = CYLINDRICAL_SURFACE ( 'NONE', #214, 5.999999999999998224 ) ;
#130 = VERTEX_POINT ( 'NONE', #80 ) ;
#131 = DIRECTION ( 'NONE',  ( -3.491481338843133355E-15, 1.224646799147353207E-16, -1.000000000000000000 ) ) ;
#132 = EDGE_LOOP ( 'NONE', ( #226, #134, #174, #312 ) ) ;
#133 = EDGE_CURVE ( 'NONE', #264, #10, #232, .T. ) ;
#134 = ORIENTED_EDGE ( 'NONE', *, *, #5, .F. ) ;
#135 =( NAMED_UNIT ( * ) SI_UNIT ( $, .STERADIAN. ) SOLID_ANGLE_UNIT ( ) );
#136 = AXIS2_PLACEMENT_3D ( 'NONE', #169, #28, #218 ) ;
#137 = DIRECTION ( 'NONE',  ( 4.275831445896958607E-31, 1.000000000000000000, 1.224646799147353207E-16 ) ) ;
#138 = ORIENTED_EDGE ( 'NONE', *, *, #273, .T. ) ;
#139 = CYLINDRICAL_SURFACE ( 'NONE', #276, 5.949999999999998401 ) ;
#140 = EDGE_LOOP ( 'NONE', ( #193, #283, #337, #138 ) ) ;
#141 = AXIS2_PLACEMENT_3D ( 'NONE', #1, #50, #45 ) ;
#142 = SURFACE_SIDE_STYLE ('',( #58 ) ) ;
#143 = DIRECTION ( 'NONE',  ( 0.000000000000000000, 1.000000000000000000, 0.000000000000000000 ) ) ;
#144 = EDGE_CURVE ( 'NONE', #130, #64, #296, .T. ) ;
#145 = AXIS2_PLACEMENT_3D ( 'NONE', #271, #112, #269 ) ;
#146 = CARTESIAN_POINT ( 'NONE',  ( 2.897929511239800811E-13, -1.016456843292303150E-14, 83.00000000000000000 ) ) ;
#147 = ORIENTED_EDGE ( 'NONE', *, *, #27, .T. ) ;
#148 = AXIS2_PLACEMENT_3D ( 'NONE', #302, #223, #123 ) ;
#149 = CARTESIAN_POINT ( 'NONE',  ( 5.950000000000102318, 0.000000000000000000, 29.99999999999997868 ) ) ;
#150 =( NAMED_UNIT ( * ) SI_UNIT ( $, .STERADIAN. ) SOLID_ANGLE_UNIT ( ) );
#151 = EDGE_CURVE ( 'NONE', #46, #264, #91, .T. ) ;
#152 = DIRECTION ( 'NONE',  ( -3.491481338843133355E-15, 1.224646799147347537E-16, -1.000000000000000000 ) ) ;
#153 = FILL_AREA_STYLE ('',( #278 ) ) ;
#154 = CARTESIAN_POINT ( 'NONE',  ( 1.961514349037405697E-13, -6.000000000000009770, 81.80000000000001137 ) ) ;
#155 = ORIENTED_EDGE ( 'NONE', *, *, #251, .F. ) ;
#156 = DIRECTION ( 'NONE',  ( -3.491481338843133355E-15, 1.224646799147347537E-16, -1.000000000000000000 ) ) ;
#157 = DIRECTION ( 'NONE',  ( 0.000000000000000000, 0.000000000000000000, 1.000000000000000000 ) ) ;
#158 = DIRECTION ( 'NONE',  ( -3.491481338843133355E-15, 1.224646799147353207E-16, -1.000000000000000000 ) ) ;
#159 = CARTESIAN_POINT ( 'NONE',  ( 1.047444401652940007E-13, -3.673940397442059178E-15, 30.00000000000000000 ) ) ;
#160 = AXIS2_PLACEMENT_3D ( 'NONE', #291, #235, #309 ) ;
#161 = CARTESIAN_POINT ( 'NONE',  ( 1.961514349037406202E-13, -5.999999999999998224, 30.13910427085457400 ) ) ;
#162 = ADVANCED_FACE ( 'NONE', ( #334 ), #255, .T. ) ;
#163 = ORIENTED_EDGE ( 'NONE', *, *, #275, .T. ) ;
#164 = FACE_OUTER_BOUND ( 'NONE', #330, .T. ) ;
#165 = CARTESIAN_POINT ( 'NONE',  ( 2.565498867538174463E-30, 5.999999999999998224, 7.347880794884117764E-16 ) ) ;
#166 = ORIENTED_EDGE ( 'NONE', *, *, #19, .F. ) ;
#167 = STYLED_ITEM ( 'NONE', ( #7 ), #53 ) ;
#168 = DIRECTION ( 'NONE',  ( 3.491481338843133355E-15, -0.000000000000000000, 1.000000000000000000 ) ) ;
#169 = CARTESIAN_POINT ( 'NONE',  ( 1.047444401652940007E-13, -3.673940397442059178E-15, 30.00000000000000000 ) ) ;
#170 = SURFACE_STYLE_USAGE ( .BOTH. , #142 ) ;
#171 = ADVANCED_FACE ( 'NONE', ( #343 ), #202, .T. ) ;
#172 = AXIS2_PLACEMENT_3D ( 'NONE', #108, #177, #137 ) ;
#173 =( GEOMETRIC_REPRESENTATION_CONTEXT ( 3 ) GLOBAL_UNCERTAINTY_ASSIGNED_CONTEXT ( ( #60 ) ) GLOBAL_UNIT_ASSIGNED_CONTEXT ( ( #205, #265, #135 ) ) REPRESENTATION_CONTEXT ( 'NONE', 'WORKASPACE' ) );
#174 = ORIENTED_EDGE ( 'NONE', *, *, #251, .T. ) ;
#175 = DIRECTION ( 'NONE',  ( 3.491481338843133355E-15, -0.000000000000000000, 1.000000000000000000 ) ) ;
#176 = CARTESIAN_POINT ( 'NONE',  ( -5.950000000000000178, 7.286648454926816060E-16, 2.077431396611664346E-14 ) ) ;
#177 = DIRECTION ( 'NONE',  ( -3.491481338843133355E-15, 1.224646799147353207E-16, -1.000000000000000000 ) ) ;
#178 = ORIENTED_EDGE ( 'NONE', *, *, #306, .F. ) ;
#179 = DIRECTION ( 'NONE',  ( 0.000000000000000000, 1.000000000000000000, 0.000000000000000000 ) ) ;
#180 =( GEOMETRIC_REPRESENTATION_CONTEXT ( 3 ) GLOBAL_UNCERTAINTY_ASSIGNED_CONTEXT ( ( #96 ) ) GLOBAL_UNIT_ASSIGNED_CONTEXT ( ( #66, #249, #150 ) ) REPRESENTATION_CONTEXT ( 'NONE', 'WORKASPACE' ) );
#181 = DIRECTION ( 'NONE',  ( 3.491481338843133355E-15, -0.000000000000000000, 1.000000000000000000 ) ) ;
#182 = AXIS2_PLACEMENT_3D ( 'NONE', #185, #107, #281 ) ;
#183 = CARTESIAN_POINT ( 'NONE',  ( 1.047444401652940007E-13, 0.000000000000000000, 30.00000000000000000 ) ) ;
#184 = CARTESIAN_POINT ( 'NONE',  ( 2.897929511239800811E-13, -1.016456843292303150E-14, 83.00000000000000000 ) ) ;
#185 = CARTESIAN_POINT ( 'NONE',  ( 1.047444401652940007E-13, -3.673940397442059178E-15, 30.00000000000000000 ) ) ;
#186 = ORIENTED_EDGE ( 'NONE', *, *, #306, .T. ) ;
#187 = CARTESIAN_POINT ( 'NONE',  ( 2.856031735173683463E-13, 5.999999999999987566, 81.80000000000001137 ) ) ;
#188 = VECTOR ( 'NONE', #268, 1000.000000000000114 ) ;
#189 = CARTESIAN_POINT ( 'NONE',  ( 1.047444401652940007E-13, 0.000000000000000000, 30.00000000000000000 ) ) ;
#190 = CARTESIAN_POINT ( 'NONE',  ( 2.876980623206742390E-13, 4.800000000000001599, 83.00000000000000000 ) ) ;
#191 = EDGE_CURVE ( 'NONE', #64, #130, #111, .T. ) ;
#192 = LINE ( 'NONE', #270, #20 ) ;
#193 = ORIENTED_EDGE ( 'NONE', *, *, #133, .F. ) ;
#194 = AXIS2_PLACEMENT_3D ( 'NONE', #35, #152, #261 ) ;
#195 = CIRCLE ( 'NONE', #43, 5.950000000000000178 ) ;
#196 = VECTOR ( 'NONE', #308, 1000.000000000000000 ) ;
#197 = ADVANCED_FACE ( 'NONE', ( #286 ), #4, .T. ) ;
#198 = ORIENTED_EDGE ( 'NONE', *, *, #216, .F. ) ;
#199 =( GEOMETRIC_REPRESENTATION_CONTEXT ( 3 ) GLOBAL_UNCERTAINTY_ASSIGNED_CONTEXT ( ( #102 ) ) GLOBAL_UNIT_ASSIGNED_CONTEXT ( ( #119, #252, #33 ) ) REPRESENTATION_CONTEXT ( 'NONE', 'WORKASPACE' ) );
#200 = DIRECTION ( 'NONE',  ( 1.000000000000000000, 0.000000000000000000, 0.000000000000000000 ) ) ;
#201 = DIRECTION ( 'NONE',  ( -3.491481338843133355E-15, 1.224646799147353207E-16, -1.000000000000000000 ) ) ;
#202 = CYLINDRICAL_SURFACE ( 'NONE', #172, 5.999999999999998224 ) ;
#203 = CARTESIAN_POINT ( 'NONE',  ( -5.949999999999893596, 7.286648454926749993E-16, 30.00000000000002132 ) ) ;
#204 = EDGE_LOOP ( 'NONE', ( #9, #209 ) ) ;
#205 =( LENGTH_UNIT ( ) NAMED_UNIT ( * ) SI_UNIT ( .MILLI., .METRE. ) );
#206 = MECHANICAL_DESIGN_GEOMETRIC_PRESENTATION_REPRESENTATION (  '', ( #258 ), #47 ) ;
#207 = EDGE_LOOP ( 'NONE', ( #292, #147 ) ) ;
#208 = FILL_AREA_STYLE ('',( #48 ) ) ;
#209 = ORIENTED_EDGE ( 'NONE', *, *, #77, .T. ) ;
#210 = ORIENTED_EDGE ( 'NONE', *, *, #144, .T. ) ;
#211 = LINE ( 'NONE', #187, #83 ) ;
#212 = MANIFOLD_SOLID_BREP ( 'Corps-Déplacer/Copier1[1]', #44 ) ;
#213 = DIRECTION ( 'NONE',  ( -3.491481338843133355E-15, 1.224646799147353207E-16, -1.000000000000000000 ) ) ;
#214 = AXIS2_PLACEMENT_3D ( 'NONE', #12, #201, #294 ) ;
#215 = DIRECTION ( 'NONE',  ( 1.000000000000000000, 0.000000000000000000, -3.498601968356586718E-15 ) ) ;
#216 = EDGE_CURVE ( 'NONE', #75, #78, #195, .T. ) ;
#217 = CARTESIAN_POINT ( 'NONE',  ( 1.052301201311361354E-13, -3.690975757447037703E-15, 30.13910427085457400 ) ) ;
#218 = DIRECTION ( 'NONE',  ( 0.000000000000000000, -1.000000000000000000, 0.000000000000000000 ) ) ;
#219 = PRODUCT_DEFINITION_SHAPE ( 'NONE', 'NONE',  #62 ) ;
#220 = CIRCLE ( 'NONE', #73, 5.999999999999994671 ) ;
#221 = DIRECTION ( 'NONE',  ( 3.491481338843133355E-15, -1.224646799147353207E-16, 1.000000000000000000 ) ) ;
#222 = CIRCLE ( 'NONE', #115, 4.800000000000011369 ) ;
#223 = DIRECTION ( 'NONE',  ( -3.491481338843133355E-15, 1.224646799147347537E-16, -1.000000000000000000 ) ) ;
#224 = ADVANCED_FACE ( 'NONE', ( #238 ), #318, .T. ) ;
#225 = FACE_OUTER_BOUND ( 'NONE', #234, .T. ) ;
#226 = ORIENTED_EDGE ( 'NONE', *, *, #116, .F. ) ;
#227 = SHAPE_DEFINITION_REPRESENTATION ( #219, #53 ) ;
#228 = CARTESIAN_POINT ( 'NONE',  ( 1.047444401652940007E-13, -3.673940397442059178E-15, 30.00000000000000000 ) ) ;
#229 = DIRECTION ( 'NONE',  ( -3.491481338843133355E-15, 1.224646799147353207E-16, -1.000000000000000000 ) ) ;
#230 = CIRCLE ( 'NONE', #82, 5.950000000000000178 ) ;
#231 = PRODUCT_DEFINITION_CONTEXT ( 'detailed design', #297, 'design' ) ;
#232 = LINE ( 'NONE', #305, #104 ) ;
#233 = DIRECTION ( 'NONE',  ( 3.491481338843133355E-15, -1.224646799147353207E-16, 1.000000000000000000 ) ) ;
#234 = EDGE_LOOP ( 'NONE', ( #256, #68, #163, #101 ) ) ;
#235 = DIRECTION ( 'NONE',  ( 3.491481338843133355E-15, -0.000000000000000000, 1.000000000000000000 ) ) ;
#236 = DIRECTION ( 'NONE',  ( 0.000000000000000000, 1.000000000000000000, 0.000000000000000000 ) ) ;
#237 = PLANE ( 'NONE',  #160 ) ;
#238 = FACE_OUTER_BOUND ( 'NONE', #204, .T. ) ;
#239 = PRESENTATION_LAYER_ASSIGNMENT (  '', '', ( #274 ) ) ;
#240 = SURFACE_STYLE_USAGE ( .BOTH. , #18 ) ;
#241 = ORIENTED_EDGE ( 'NONE', *, *, #311, .F. ) ;
#242 = LINE ( 'NONE', #165, #327 ) ;
#243 = ORIENTED_EDGE ( 'NONE', *, *, #27, .F. ) ;
#244 = ORIENTED_EDGE ( 'NONE', *, *, #191, .T. ) ;
#245 = CARTESIAN_POINT ( 'NONE',  ( 1.052301201311361354E-13, -3.690975757447037703E-15, 30.13910427085457400 ) ) ;
#246 = AXIS2_PLACEMENT_3D ( 'NONE', #41, #314, #316 ) ;
#247 =( NAMED_UNIT ( * ) PLANE_ANGLE_UNIT ( ) SI_UNIT ( $, .RADIAN. ) );
#248 =( NAMED_UNIT ( * ) SI_UNIT ( $, .STERADIAN. ) SOLID_ANGLE_UNIT ( ) );
#249 =( NAMED_UNIT ( * ) PLANE_ANGLE_UNIT ( ) SI_UNIT ( $, .RADIAN. ) );
#250 = ORIENTED_EDGE ( 'NONE', *, *, #19, .T. ) ;
#251 = EDGE_CURVE ( 'NONE', #299, #71, #211, .T. ) ;
#252 =( NAMED_UNIT ( * ) PLANE_ANGLE_UNIT ( ) SI_UNIT ( $, .RADIAN. ) );
#253 = CARTESIAN_POINT ( 'NONE',  ( 0.000000000000000000, 0.000000000000000000, 0.000000000000000000 ) ) ;
#254 = CIRCLE ( 'NONE', #37, 5.950000000000000178 ) ;
#255 = CYLINDRICAL_SURFACE ( 'NONE', #8, 5.949999999999998401 ) ;
#256 = ORIENTED_EDGE ( 'NONE', *, *, #30, .F. ) ;
#257 = CONICAL_SURFACE ( 'NONE', #117, 5.999999999999998224, 0.7853981633974458365 ) ;
#258 = STYLED_ITEM ( 'NONE', ( #25 ), #328 ) ;
#259 = LINE ( 'NONE', #72, #188 ) ;
#260 = AXIS2_PLACEMENT_3D ( 'NONE', #184, #290, #51 ) ;
#261 = DIRECTION ( 'NONE',  ( 1.598721155460225734E-14, -1.000000000000000000, 0.000000000000000000 ) ) ;
#262 = ORIENTED_EDGE ( 'NONE', *, *, #65, .T. ) ;
#263 = DIRECTION ( 'NONE',  ( 1.000000000000000000, 0.000000000000000000, -3.498601968356586718E-15 ) ) ;
#264 = VERTEX_POINT ( 'NONE', #124 ) ;
#265 =( NAMED_UNIT ( * ) PLANE_ANGLE_UNIT ( ) SI_UNIT ( $, .RADIAN. ) );
#266 = EDGE_CURVE ( 'NONE', #75, #64, #192, .T. ) ;
#267 = ORIENTED_EDGE ( 'NONE', *, *, #49, .F. ) ;
#268 = DIRECTION ( 'NONE',  ( -2.382254525458722992E-15, -0.7071067811865456854, -0.7071067811865493491 ) ) ;
#269 = DIRECTION ( 'NONE',  ( -1.000000000000000000, 0.000000000000000000, 3.491481338843133355E-15 ) ) ;
#270 = CARTESIAN_POINT ( 'NONE',  ( 5.950000000000103206, 0.000000000000000000, 29.99999999999997868 ) ) ;
#271 = CARTESIAN_POINT ( 'NONE',  ( 1.047444401652940007E-13, 5.949999999999996625, 30.00000000000000000 ) ) ;
#272 = CIRCLE ( 'NONE', #61, 5.999999999999994671 ) ;
#273 = EDGE_CURVE ( 'NONE', #120, #10, #220, .T. ) ;
#274 = STYLED_ITEM ( 'NONE', ( #97 ), #212 ) ;
#275 = EDGE_CURVE ( 'NONE', #71, #10, #242, .T. ) ;
#276 = AXIS2_PLACEMENT_3D ( 'NONE', #189, #320, #215 ) ;
#277 = ORIENTED_EDGE ( 'NONE', *, *, #144, .F. ) ;
#278 = FILL_AREA_STYLE_COLOUR ( '', #310 ) ;
#279 = CARTESIAN_POINT ( 'NONE',  ( 2.897929511239800811E-13, -1.016456843292303150E-14, 83.00000000000000000 ) ) ;
#280 = APPLICATION_PROTOCOL_DEFINITION ( 'draft international standard', 'automotive_design', 1998, #56 ) ;
#281 = DIRECTION ( 'NONE',  ( 0.000000000000000000, -1.000000000000000000, 0.000000000000000000 ) ) ;
#282 = FACE_OUTER_BOUND ( 'NONE', #81, .T. ) ;
#283 = ORIENTED_EDGE ( 'NONE', *, *, #151, .F. ) ;
#284 = COLOUR_RGB ( '',1.000000000000000000, 1.000000000000000000, 1.000000000000000000 ) ;
#285 = DIRECTION ( 'NONE',  ( 3.491481338843133355E-15, -0.000000000000000000, 1.000000000000000000 ) ) ;
#286 = FACE_OUTER_BOUND ( 'NONE', #140, .T. ) ;
#287 = ADVANCED_FACE ( 'NONE', ( #164 ), #139, .T. ) ;
#288 = CARTESIAN_POINT ( 'NONE',  ( 1.052301201311361354E-13, 5.999999999999991118, 30.13910427085457400 ) ) ;
#289 = SURFACE_STYLE_FILL_AREA ( #208 ) ;
#290 = DIRECTION ( 'NONE',  ( 3.491481338843133355E-15, -1.224646799147353207E-16, 1.000000000000000000 ) ) ;
#291 = CARTESIAN_POINT ( 'NONE',  ( 2.137915722948479303E-31, 5.950000000000000178, 6.123233995736767268E-17 ) ) ;
#292 = ORIENTED_EDGE ( 'NONE', *, *, #5, .T. ) ;
#293 = CARTESIAN_POINT ( 'NONE',  ( 1.047444401652940007E-13, -5.950000000000003730, 30.00000000000000000 ) ) ;
#294 = DIRECTION ( 'NONE',  ( 4.275831445896958607E-31, 1.000000000000000000, 1.224646799147353207E-16 ) ) ;
#295 = DIRECTION ( 'NONE',  ( -3.491481338843133355E-15, 1.224646799147353207E-16, -1.000000000000000000 ) ) ;
#296 = CIRCLE ( 'NONE', #246, 5.949999999999996625 ) ;
#297 = APPLICATION_CONTEXT ( 'automotive_design' ) ;
#298 = AXIS2_PLACEMENT_3D ( 'NONE', #159, #131, #236 ) ;
#299 = VERTEX_POINT ( 'NONE', #190 ) ;
#300 = UNCERTAINTY_MEASURE_WITH_UNIT (LENGTH_MEASURE( 1.000000000000000082E-05 ), #55, 'distance_accuracy_value', 'NONE');
#301 = CARTESIAN_POINT ( 'NONE',  ( 0.000000000000000000, 0.000000000000000000, 0.000000000000000000 ) ) ;
#302 = CARTESIAN_POINT ( 'NONE',  ( 2.856031735173683463E-13, -1.001761081702535121E-14, 81.80000000000001137 ) ) ;
#303 = SURFACE_SIDE_STYLE ('',( #31 ) ) ;
#304 = PRODUCT_CONTEXT ( 'NONE', #56, 'mechanical' ) ;
#305 = CARTESIAN_POINT ( 'NONE',  ( 1.054731050107866761E-13, 5.949999999999996625, 30.00000000000000000 ) ) ;
#306 = EDGE_CURVE ( 'NONE', #10, #120, #272, .T. ) ;
#307 = CARTESIAN_POINT ( 'NONE',  ( 1.049872801482150617E-13, -5.950000000000003730, 30.00000000000000000 ) ) ;
#308 = DIRECTION ( 'NONE',  ( 3.491481338843133355E-15, -0.000000000000000000, 1.000000000000000000 ) ) ;
#309 = DIRECTION ( 'NONE',  ( 1.000000000000000000, 0.000000000000000000, -3.491481338843133355E-15 ) ) ;
#310 = COLOUR_RGB ( '',1.000000000000000000, 1.000000000000000000, 1.000000000000000000 ) ;
#311 = EDGE_CURVE ( 'NONE', #46, #120, #87, .T. ) ;
#312 = ORIENTED_EDGE ( 'NONE', *, *, #339, .F. ) ;
#313 = COLOUR_RGB ( '',1.000000000000000000, 1.000000000000000000, 1.000000000000000000 ) ;
#314 = DIRECTION ( 'NONE',  ( 3.491481338843133355E-15, -0.000000000000000000, 1.000000000000000000 ) ) ;
#315 = EDGE_LOOP ( 'NONE', ( #243, #94, #267, #155 ) ) ;
#316 = DIRECTION ( 'NONE',  ( 1.000000000000000000, 0.000000000000000000, -3.498601968356587901E-15 ) ) ;
#317 = ORIENTED_EDGE ( 'NONE', *, *, #65, .F. ) ;
#318 = PLANE ( 'NONE',  #141 ) ;
#319 = AXIS2_PLACEMENT_3D ( 'NONE', #301, #157, #200 ) ;
#320 = DIRECTION ( 'NONE',  ( 3.491481338843133355E-15, -0.000000000000000000, 1.000000000000000000 ) ) ;
#321 = CARTESIAN_POINT ( 'NONE',  ( 2.856031735173683463E-13, -1.001761081702535121E-14, 81.80000000000001137 ) ) ;
#322 = DIRECTION ( 'NONE',  ( -3.491481338843133355E-15, 1.224646799147353207E-16, -1.000000000000000000 ) ) ;
#323 = FACE_OUTER_BOUND ( 'NONE', #315, .T. ) ;
#324 = ADVANCED_FACE ( 'NONE', ( #84 ), #3, .F. ) ;
#325 = FACE_OUTER_BOUND ( 'NONE', #132, .T. ) ;
#326 = ORIENTED_EDGE ( 'NONE', *, *, #49, .T. ) ;
#327 = VECTOR ( 'NONE', #322, 1000.000000000000000 ) ;
#328 = MANIFOLD_SOLID_BREP ( 'Corps-Déplacer/Copier1[2]', #63 ) ;
#329 = ADVANCED_FACE ( 'NONE', ( #325 ), #257, .T. ) ;
#330 = EDGE_LOOP ( 'NONE', ( #98, #250, #85, #106 ) ) ;
#331 = VERTEX_POINT ( 'NONE', #109 ) ;
#332 = AXIS2_PLACEMENT_3D ( 'NONE', #183, #181, #76 ) ;
#333 = FACE_OUTER_BOUND ( 'NONE', #207, .T. ) ;
#334 = FACE_OUTER_BOUND ( 'NONE', #14, .T. ) ;
#335 = ORIENTED_EDGE ( 'NONE', *, *, #133, .T. ) ;
#336 = DIRECTION ( 'NONE',  ( -4.275831445896958607E-31, -1.000000000000000000, -1.224646799147353207E-16 ) ) ;
#337 = ORIENTED_EDGE ( 'NONE', *, *, #311, .T. ) ;
#338 = CARTESIAN_POINT ( 'NONE',  ( 0.000000000000000000, 0.000000000000000000, 0.000000000000000000 ) ) ;
#339 = EDGE_CURVE ( 'NONE', #79, #71, #39, .T. ) ;
#340 = ORIENTED_EDGE ( 'NONE', *, *, #77, .F. ) ;
#341 = CARTESIAN_POINT ( 'NONE',  ( 1.047444401652940007E-13, 0.000000000000000000, 30.00000000000000000 ) ) ;
#342 = PRESENTATION_LAYER_ASSIGNMENT (  '', '', ( #258 ) ) ;
#343 = FACE_OUTER_BOUND ( 'NONE', #42, .T. ) ;
ENDSEC;
END-ISO-10303-21;
