ISO-10303-21;
HEADER;
FILE_DESCRIPTION (( 'STEP AP214' ),
    '1' );
FILE_NAME ('57005.step',
    '2024-04-04T09:56:08',
    ( '' ),
    ( '' ),
    'SwSTEP 2.0',
    'SolidWorks 2022',
    '' );
FILE_SCHEMA (( 'AUTOMOTIVE_DESIGN' ));
ENDSEC;

DATA;
#1 = CARTESIAN_POINT ( 'NONE',  ( 2.485074984574361313E-13, -5.000000000000007994, 71.00000000000000000 ) ) ;
#2 = CONICAL_SURFACE ( 'NONE', #15, 4.999999999999999112, 0.7853981633974496113 ) ;
#3 = EDGE_LOOP ( 'NONE', ( #114, #326 ) ) ;
#4 = SHAPE_DEFINITION_REPRESENTATION ( #50, #285 ) ;
#5 = DIRECTION ( 'NONE',  ( 0.000000000000000000, -1.000000000000000000, 0.000000000000000000 ) ) ;
#6 =( NAMED_UNIT ( * ) SI_UNIT ( $, .STERADIAN. ) SOLID_ANGLE_UNIT ( ) );
#7 = ORIENTED_EDGE ( 'NONE', *, *, #305, .F. ) ;
#8 = ORIENTED_EDGE ( 'NONE', *, *, #163, .F. ) ;
#9 = CIRCLE ( 'NONE', #211, 4.950000000000000178 ) ;
#10 = LINE ( 'NONE', #150, #274 ) ;
#11 = DIRECTION ( 'NONE',  ( -4.275831445896958607E-31, -1.000000000000000000, -1.224646799147353207E-16 ) ) ;
#12 = DIRECTION ( 'NONE',  ( 3.491481338843133355E-15, -1.224646799147353207E-16, 1.000000000000000000 ) ) ;
#13 = ORIENTED_EDGE ( 'NONE', *, *, #48, .F. ) ;
#14 = DIRECTION ( 'NONE',  ( 3.285674118869259844E-15, -0.3382550599108838374, 0.9410544694355817974 ) ) ;
#15 = AXIS2_PLACEMENT_3D ( 'NONE', #201, #298, #271 ) ;
#16 = EDGE_CURVE ( 'NONE', #81, #90, #199, .T. ) ;
#17 = DIRECTION ( 'NONE',  ( -3.491481338843133355E-15, 1.224646799147353207E-16, -1.000000000000000000 ) ) ;
#18 = MANIFOLD_SOLID_BREP ( 'Corps-Déplacer/Copier1[1]', #148 ) ;
#19 = VECTOR ( 'NONE', #88, 1000.000000000000000 ) ;
#20 = ORIENTED_EDGE ( 'NONE', *, *, #48, .T. ) ;
#21 = LINE ( 'NONE', #80, #19 ) ;
#22 = CARTESIAN_POINT ( 'NONE',  ( 2.478951750578624304E-13, -8.694992273946206563E-15, 71.00000000000000000 ) ) ;
#23 = EDGE_LOOP ( 'NONE', ( #249, #49, #20, #8 ) ) ;
#24 = DIRECTION ( 'NONE',  ( 0.000000000000000000, 1.000000000000000000, 0.000000000000000000 ) ) ;
#25 = ORIENTED_EDGE ( 'NONE', *, *, #123, .F. ) ;
#26 = CARTESIAN_POINT ( 'NONE',  ( 8.464765389773208849E-14, 4.949999999999997513, 24.00000000000000000 ) ) ;
#27 = CARTESIAN_POINT ( 'NONE',  ( 0.000000000000000000, 0.000000000000000000, 0.000000000000000000 ) ) ;
#28 = DIRECTION ( 'NONE',  ( 4.275831445896958607E-31, 1.000000000000000000, 1.224646799147353207E-16 ) ) ;
#29 = FACE_OUTER_BOUND ( 'NONE', #30, .T. ) ;
#30 = EDGE_LOOP ( 'NONE', ( #314, #281, #63, #272 ) ) ;
#31 = AXIS2_PLACEMENT_3D ( 'NONE', #22, #107, #85 ) ;
#32 = EDGE_LOOP ( 'NONE', ( #248, #110 ) ) ;
#33 = DIRECTION ( 'NONE',  ( 0.000000000000000000, 1.000000000000000000, 0.000000000000000000 ) ) ;
#34 = COLOUR_RGB ( '',1.000000000000000000, 1.000000000000000000, 1.000000000000000000 ) ;
#35 = CIRCLE ( 'NONE', #200, 3.999999999999995559 ) ;
#36 = CYLINDRICAL_SURFACE ( 'NONE', #229, 4.999999999999999112 ) ;
#37 = ORIENTED_EDGE ( 'NONE', *, *, #265, .T. ) ;
#38 = PLANE ( 'NONE',  #143 ) ;
#39 = ADVANCED_FACE ( 'NONE', ( #101 ), #217, .F. ) ;
#40 = CONICAL_SURFACE ( 'NONE', #84, 4.950000000000000178, 0.3450620389298209578 ) ;
#41 = CIRCLE ( 'NONE', #263, 4.999999999999996447 ) ;
#42 = DIRECTION ( 'NONE',  ( 1.000000000000000000, 0.000000000000000000, -3.491481338843133355E-15 ) ) ;
#43 = PRESENTATION_STYLE_ASSIGNMENT (( #284 ) ) ;
#44 = PRESENTATION_STYLE_ASSIGNMENT (( #161 ) ) ;
#45 = ORIENTED_EDGE ( 'NONE', *, *, #337, .F. ) ;
#46 = AXIS2_PLACEMENT_3D ( 'NONE', #162, #136, #5 ) ;
#47 = STYLED_ITEM ( 'NONE', ( #43 ), #285 ) ;
#48 = EDGE_CURVE ( 'NONE', #297, #230, #315, .T. ) ;
#49 = ORIENTED_EDGE ( 'NONE', *, *, #214, .F. ) ;
#50 = PRODUCT_DEFINITION_SHAPE ( 'NONE', 'NONE',  #195 ) ;
#51 = DIRECTION ( 'NONE',  ( 3.491481338843133355E-15, -0.000000000000000000, 1.000000000000000000 ) ) ;
#52 = ORIENTED_EDGE ( 'NONE', *, *, #96, .T. ) ;
#53 = CARTESIAN_POINT ( 'NONE',  ( 2.478951750578624304E-13, 4.999999999999990230, 71.00000000000000000 ) ) ;
#54 = FACE_OUTER_BOUND ( 'NONE', #141, .T. ) ;
#55 = FACE_OUTER_BOUND ( 'NONE', #102, .T. ) ;
#56 = LINE ( 'NONE', #273, #277 ) ;
#57 = AXIS2_PLACEMENT_3D ( 'NONE', #257, #331, #212 ) ;
#58 = APPLICATION_PROTOCOL_DEFINITION ( 'draft international standard', 'automotive_design', 1998, #95 ) ;
#59 = CARTESIAN_POINT ( 'NONE',  ( 2.501920067869003115E-13, -4.000000000000004441, 72.00000000000000000 ) ) ;
#60 = ADVANCED_FACE ( 'NONE', ( #139 ), #40, .T. ) ;
#61 = DIRECTION ( 'NONE',  ( 1.000000000000000000, 0.000000000000000000, -3.504491870660216954E-15 ) ) ;
#62 = DIRECTION ( 'NONE',  ( 3.491481338843133355E-15, -0.000000000000000000, 1.000000000000000000 ) ) ;
#63 = ORIENTED_EDGE ( 'NONE', *, *, #72, .F. ) ;
#64 = CIRCLE ( 'NONE', #310, 4.999999999999996447 ) ;
#65 = ORIENTED_EDGE ( 'NONE', *, *, #163, .T. ) ;
#66 = DIRECTION ( 'NONE',  ( 0.000000000000000000, -1.000000000000000000, 0.000000000000000000 ) ) ;
#67 = FACE_OUTER_BOUND ( 'NONE', #186, .T. ) ;
#68 = FACE_OUTER_BOUND ( 'NONE', #219, .T. ) ;
#69 = CARTESIAN_POINT ( 'NONE',  ( 0.000000000000000000, 0.000000000000000000, 0.000000000000000000 ) ) ;
#70 = CARTESIAN_POINT ( 'NONE',  ( 4.275831445896957731E-31, 4.950000000000000178, 1.224646799147353207E-16 ) ) ;
#71 = UNCERTAINTY_MEASURE_WITH_UNIT (LENGTH_MEASURE( 1.000000000000000082E-05 ), #171, 'distance_accuracy_value', 'NONE');
#72 = EDGE_CURVE ( 'NONE', #87, #170, #209, .T. ) ;
#73 = CARTESIAN_POINT ( 'NONE',  ( 2.478951750578624304E-13, -8.694992273946206563E-15, 71.00000000000000000 ) ) ;
#74 = EDGE_LOOP ( 'NONE', ( #324, #146, #318, #179 ) ) ;
#75 = DIRECTION ( 'NONE',  ( 3.491481338843133355E-15, -1.224646799147353207E-16, 1.000000000000000000 ) ) ;
#76 = CONICAL_SURFACE ( 'NONE', #330, 4.999999999999999112, 0.7853981633974496113 ) ;
#77 = ORIENTED_EDGE ( 'NONE', *, *, #106, .T. ) ;
#78 = VECTOR ( 'NONE', #83, 1000.000000000000227 ) ;
#79 = DIRECTION ( 'NONE',  ( 3.491481338843133355E-15, -1.224646799147353207E-16, 1.000000000000000000 ) ) ;
#80 = CARTESIAN_POINT ( 'NONE',  ( 2.137915722948478778E-30, 4.999999999999999112, 6.123233995736765296E-16 ) ) ;
#81 = VERTEX_POINT ( 'NONE', #26 ) ;
#82 = PRESENTATION_LAYER_ASSIGNMENT (  '', '', ( #237 ) ) ;
#83 = DIRECTION ( 'NONE',  ( 3.327098416510786032E-15, 0.3382550599108836153, 0.9410544694355817974 ) ) ;
#84 = AXIS2_PLACEMENT_3D ( 'NONE', #115, #79, #66 ) ;
#85 = DIRECTION ( 'NONE',  ( -1.598721155460225103E-14, -1.000000000000000000, 0.000000000000000000 ) ) ;
#86 = AXIS2_PLACEMENT_3D ( 'NONE', #130, #264, #236 ) ;
#87 = VERTEX_POINT ( 'NONE', #220 ) ;
#88 = DIRECTION ( 'NONE',  ( -3.491481338843133355E-15, 1.224646799147353207E-16, -1.000000000000000000 ) ) ;
#89 = DIRECTION ( 'NONE',  ( 3.491481338843133355E-15, -1.224646799147353207E-16, 1.000000000000000000 ) ) ;
#90 = VERTEX_POINT ( 'NONE', #316 ) ;
#91 = DIRECTION ( 'NONE',  ( 0.000000000000000000, 1.000000000000000000, 0.000000000000000000 ) ) ;
#92 = CARTESIAN_POINT ( 'NONE',  ( 8.379555213223520053E-14, 0.000000000000000000, 24.00000000000000000 ) ) ;
#93 = MECHANICAL_DESIGN_GEOMETRIC_PRESENTATION_REPRESENTATION (  '', ( #176 ), #97 ) ;
#94 = EDGE_CURVE ( 'NONE', #153, #165, #154, .T. ) ;
#95 = APPLICATION_CONTEXT ( 'automotive_design' ) ;
#96 = EDGE_CURVE ( 'NONE', #90, #242, #10, .T. ) ;
#97 =( GEOMETRIC_REPRESENTATION_CONTEXT ( 3 ) GLOBAL_UNCERTAINTY_ASSIGNED_CONTEXT ( ( #181 ) ) GLOBAL_UNIT_ASSIGNED_CONTEXT ( ( #239, #269, #6 ) ) REPRESENTATION_CONTEXT ( 'NONE', 'WORKASPACE' ) );
#98 = SURFACE_SIDE_STYLE ('',( #308 ) ) ;
#99 = DIRECTION ( 'NONE',  ( 1.687538997430237626E-14, -1.000000000000000000, 0.000000000000000000 ) ) ;
#100 = ADVANCED_FACE ( 'NONE', ( #231 ), #303, .T. ) ;
#101 = FACE_OUTER_BOUND ( 'NONE', #3, .T. ) ;
#102 = EDGE_LOOP ( 'NONE', ( #203, #287 ) ) ;
#103 = PRESENTATION_LAYER_ASSIGNMENT (  '', '', ( #176 ) ) ;
#104 = DIRECTION ( 'NONE',  ( 1.000000000000000000, 0.000000000000000000, -3.504491870660218137E-15 ) ) ;
#105 = CARTESIAN_POINT ( 'NONE',  ( 8.440175229781314077E-14, 4.949999999999997513, 24.00000000000000000 ) ) ;
#106 = EDGE_CURVE ( 'NONE', #230, #338, #340, .T. ) ;
#107 = DIRECTION ( 'NONE',  ( -3.491481338843133355E-15, 1.224646799147349263E-16, -1.000000000000000000 ) ) ;
#108 = MANIFOLD_SOLID_BREP ( 'Corps-Déplacer/Copier1[2]', #120 ) ;
#109 = DIRECTION ( 'NONE',  ( -2.382254525458713525E-15, -0.7071067811865483499, -0.7071067811865467956 ) ) ;
#110 = ORIENTED_EDGE ( 'NONE', *, *, #94, .F. ) ;
#111 = FACE_OUTER_BOUND ( 'NONE', #118, .T. ) ;
#112 = AXIS2_PLACEMENT_3D ( 'NONE', #197, #62, #117 ) ;
#113 = FACE_OUTER_BOUND ( 'NONE', #198, .T. ) ;
#114 = ORIENTED_EDGE ( 'NONE', *, *, #72, .T. ) ;
#115 = CARTESIAN_POINT ( 'NONE',  ( 8.379555213223520053E-14, -2.939152317953647894E-15, 24.00000000000000000 ) ) ;
#116 = CARTESIAN_POINT ( 'NONE',  ( 8.428123209807734784E-14, -2.956187677958626419E-15, 24.13910427085458110 ) ) ;
#117 = DIRECTION ( 'NONE',  ( 1.000000000000000000, 0.000000000000000000, -3.504491870660216954E-15 ) ) ;
#118 = EDGE_LOOP ( 'NONE', ( #192, #157, #329, #13 ) ) ;
#119 = ADVANCED_FACE ( 'NONE', ( #113 ), #210, .T. ) ;
#120 = CLOSED_SHELL ( 'NONE', ( #313, #119, #39, #184 ) ) ;
#121 = ORIENTED_EDGE ( 'NONE', *, *, #214, .T. ) ;
#122 = FILL_AREA_STYLE ('',( #127 ) ) ;
#123 = EDGE_CURVE ( 'NONE', #170, #87, #190, .T. ) ;
#124 = DIRECTION ( 'NONE',  ( 3.491481338843133355E-15, -0.000000000000000000, 1.000000000000000000 ) ) ;
#125 = AXIS2_PLACEMENT_3D ( 'NONE', #73, #183, #99 ) ;
#126 = DIRECTION ( 'NONE',  ( 4.275831445896958607E-31, 1.000000000000000000, 1.224646799147353207E-16 ) ) ;
#127 = FILL_AREA_STYLE_COLOUR ( '', #34 ) ;
#128 = SURFACE_SIDE_STYLE ('',( #261 ) ) ;
#129 = CARTESIAN_POINT ( 'NONE',  ( -4.949999999999915801, 6.062001655779397525E-16, 24.00000000000001776 ) ) ;
#130 = CARTESIAN_POINT ( 'NONE',  ( 8.379555213223520053E-14, 4.949999999999997513, 24.00000000000000000 ) ) ;
#131 = AXIS2_PLACEMENT_3D ( 'NONE', #294, #270, #24 ) ;
#132 =( GEOMETRIC_REPRESENTATION_CONTEXT ( 3 ) GLOBAL_UNCERTAINTY_ASSIGNED_CONTEXT ( ( #253 ) ) GLOBAL_UNIT_ASSIGNED_CONTEXT ( ( #258, #312, #188 ) ) REPRESENTATION_CONTEXT ( 'NONE', 'WORKASPACE' ) );
#133 = PRODUCT ( '57005', '57005', '', ( #222 ) ) ;
#134 = FILL_AREA_STYLE ('',( #240 ) ) ;
#135 = AXIS2_PLACEMENT_3D ( 'NONE', #70, #259, #42 ) ;
#136 = DIRECTION ( 'NONE',  ( 3.491481338843133355E-15, -1.224646799147353207E-16, 1.000000000000000000 ) ) ;
#137 = DIRECTION ( 'NONE',  ( 3.491481338843133355E-15, -0.000000000000000000, 1.000000000000000000 ) ) ;
#138 = LINE ( 'NONE', #1, #268 ) ;
#139 = FACE_OUTER_BOUND ( 'NONE', #74, .T. ) ;
#140 = LINE ( 'NONE', #105, #78 ) ;
#141 = EDGE_LOOP ( 'NONE', ( #243, #7, #52, #191 ) ) ;
#142 = CARTESIAN_POINT ( 'NONE',  ( 8.428123209807734784E-14, 4.999999999999993783, 24.13910427085458110 ) ) ;
#143 = AXIS2_PLACEMENT_3D ( 'NONE', #252, #75, #11 ) ;
#144 =( GEOMETRIC_REPRESENTATION_CONTEXT ( 3 ) GLOBAL_UNCERTAINTY_ASSIGNED_CONTEXT ( ( #71 ) ) GLOBAL_UNIT_ASSIGNED_CONTEXT ( ( #171, #266, #339 ) ) REPRESENTATION_CONTEXT ( 'NONE', 'WORKASPACE' ) );
#145 = EDGE_CURVE ( 'NONE', #292, #297, #304, .T. ) ;
#146 = ORIENTED_EDGE ( 'NONE', *, *, #241, .T. ) ;
#147 = CARTESIAN_POINT ( 'NONE',  ( 1.660882035779698891E-13, 4.999999999999990230, 71.00000000000000000 ) ) ;
#148 = CLOSED_SHELL ( 'NONE', ( #291, #60, #100, #155, #189, #233, #244, #226 ) ) ;
#149 = AXIS2_PLACEMENT_3D ( 'NONE', #204, #275, #104 ) ;
#150 = CARTESIAN_POINT ( 'NONE',  ( 8.379555213223520053E-14, -4.950000000000002842, 24.00000000000000000 ) ) ;
#151 = CARTESIAN_POINT ( 'NONE',  ( 0.000000000000000000, 0.000000000000000000, 0.000000000000000000 ) ) ;
#152 = DIRECTION ( 'NONE',  ( -3.491481338843133355E-15, 1.224646799147353207E-16, -1.000000000000000000 ) ) ;
#153 = VERTEX_POINT ( 'NONE', #205 ) ;
#154 = CIRCLE ( 'NONE', #166, 4.950000000000000178 ) ;
#155 = ADVANCED_FACE ( 'NONE', ( #55 ), #168, .T. ) ;
#156 =( NAMED_UNIT ( * ) PLANE_ANGLE_UNIT ( ) SI_UNIT ( $, .RADIAN. ) );
#157 = ORIENTED_EDGE ( 'NONE', *, *, #159, .T. ) ;
#158 = VECTOR ( 'NONE', #124, 1000.000000000000000 ) ;
#159 = EDGE_CURVE ( 'NONE', #292, #338, #138, .T. ) ;
#160 = AXIS2_PLACEMENT_3D ( 'NONE', #247, #342, #343 ) ;
#161 = SURFACE_STYLE_USAGE ( .BOTH. , #336 ) ;
#162 = CARTESIAN_POINT ( 'NONE',  ( 8.379555213223520053E-14, -2.939152317953647894E-15, 24.00000000000000000 ) ) ;
#163 = EDGE_CURVE ( 'NONE', #338, #230, #278, .T. ) ;
#164 = DIRECTION ( 'NONE',  ( 1.000000000000000000, 0.000000000000000000, -3.504491870660218137E-15 ) ) ;
#165 = VERTEX_POINT ( 'NONE', #225 ) ;
#166 = AXIS2_PLACEMENT_3D ( 'NONE', #69, #207, #251 ) ;
#167 = DIRECTION ( 'NONE',  ( -3.491481338843133355E-15, 1.224646799147353207E-16, -1.000000000000000000 ) ) ;
#168 = PLANE ( 'NONE',  #283 ) ;
#169 = DIRECTION ( 'NONE',  ( 1.000000000000000000, 0.000000000000000000, -3.491481338843133355E-15 ) ) ;
#170 = VERTEX_POINT ( 'NONE', #173 ) ;
#171 =( LENGTH_UNIT ( ) NAMED_UNIT ( * ) SI_UNIT ( .MILLI., .METRE. ) );
#172 = DIRECTION ( 'NONE',  ( 0.000000000000000000, 1.000000000000000000, 0.000000000000000000 ) ) ;
#173 = CARTESIAN_POINT ( 'NONE',  ( -4.949999999999914024, 6.062001655779396539E-16, 24.00000000000001776 ) ) ;
#174 = EDGE_CURVE ( 'NONE', #153, #170, #282, .T. ) ;
#175 = ORIENTED_EDGE ( 'NONE', *, *, #218, .T. ) ;
#176 = STYLED_ITEM ( 'NONE', ( #44 ), #108 ) ;
#177 = COLOUR_RGB ( '',1.000000000000000000, 1.000000000000000000, 1.000000000000000000 ) ;
#178 = DIRECTION ( 'NONE',  ( 0.000000000000000000, -1.000000000000000000, 0.000000000000000000 ) ) ;
#179 = ORIENTED_EDGE ( 'NONE', *, *, #96, .F. ) ;
#180 = AXIS2_PLACEMENT_3D ( 'NONE', #280, #152, #254 ) ;
#181 = UNCERTAINTY_MEASURE_WITH_UNIT (LENGTH_MEASURE( 1.000000000000000082E-05 ), #239, 'distance_accuracy_value', 'NONE');
#182 = PRESENTATION_LAYER_ASSIGNMENT (  '', '', ( #47 ) ) ;
#183 = DIRECTION ( 'NONE',  ( -3.491481338843133355E-15, 1.224646799147349263E-16, -1.000000000000000000 ) ) ;
#184 = ADVANCED_FACE ( 'NONE', ( #208 ), #328, .F. ) ;
#185 = MECHANICAL_DESIGN_GEOMETRIC_PRESENTATION_REPRESENTATION (  '', ( #237 ), #301 ) ;
#186 = EDGE_LOOP ( 'NONE', ( #121, #321 ) ) ;
#187 = APPLICATION_PROTOCOL_DEFINITION ( 'draft international standard', 'automotive_design', 1998, #296 ) ;
#188 =( NAMED_UNIT ( * ) SI_UNIT ( $, .STERADIAN. ) SOLID_ANGLE_UNIT ( ) );
#189 = ADVANCED_FACE ( 'NONE', ( #67 ), #38, .T. ) ;
#190 = CIRCLE ( 'NONE', #288, 4.949999999999997513 ) ;
#191 = ORIENTED_EDGE ( 'NONE', *, *, #337, .T. ) ;
#192 = ORIENTED_EDGE ( 'NONE', *, *, #145, .F. ) ;
#193 =( NAMED_UNIT ( * ) SI_UNIT ( $, .STERADIAN. ) SOLID_ANGLE_UNIT ( ) );
#194 = DIRECTION ( 'NONE',  ( 0.000000000000000000, -1.000000000000000000, 0.000000000000000000 ) ) ;
#195 = PRODUCT_DEFINITION ( 'UNKNOWN', '', #327, #290 ) ;
#196 = CARTESIAN_POINT ( 'NONE',  ( 2.496409157272839907E-13, 3.999999999999987121, 72.00000000000000000 ) ) ;
#197 = CARTESIAN_POINT ( 'NONE',  ( 8.379555213223520053E-14, 0.000000000000000000, 24.00000000000000000 ) ) ;
#198 = EDGE_LOOP ( 'NONE', ( #223, #221, #175, #25 ) ) ;
#199 = CIRCLE ( 'NONE', #57, 4.950000000000000178 ) ;
#200 = AXIS2_PLACEMENT_3D ( 'NONE', #256, #12, #178 ) ;
#201 = CARTESIAN_POINT ( 'NONE',  ( 2.478951750578624304E-13, -8.694992273946206563E-15, 71.00000000000000000 ) ) ;
#202 = MECHANICAL_DESIGN_GEOMETRIC_PRESENTATION_REPRESENTATION (  '', ( #47 ), #144 ) ;
#203 = ORIENTED_EDGE ( 'NONE', *, *, #305, .T. ) ;
#204 = CARTESIAN_POINT ( 'NONE',  ( 8.379555213223520053E-14, 0.000000000000000000, 24.00000000000000000 ) ) ;
#205 = CARTESIAN_POINT ( 'NONE',  ( -4.950000000000000178, 6.062001655779450773E-16, 1.728283262727351642E-14 ) ) ;
#206 = COLOUR_RGB ( '',1.000000000000000000, 1.000000000000000000, 1.000000000000000000 ) ;
#207 = DIRECTION ( 'NONE',  ( 3.491481338843133355E-15, -0.000000000000000000, 1.000000000000000000 ) ) ;
#208 = FACE_OUTER_BOUND ( 'NONE', #32, .T. ) ;
#209 = CIRCLE ( 'NONE', #149, 4.949999999999997513 ) ;
#210 = CYLINDRICAL_SURFACE ( 'NONE', #112, 4.949999999999999289 ) ;
#211 = AXIS2_PLACEMENT_3D ( 'NONE', #27, #137, #169 ) ;
#212 = DIRECTION ( 'NONE',  ( 0.000000000000000000, 1.000000000000000000, 0.000000000000000000 ) ) ;
#213 = FILL_AREA_STYLE ('',( #216 ) ) ;
#214 = EDGE_CURVE ( 'NONE', #297, #292, #35, .T. ) ;
#215 = CIRCLE ( 'NONE', #131, 4.950000000000000178 ) ;
#216 = FILL_AREA_STYLE_COLOUR ( '', #206 ) ;
#217 = PLANE ( 'NONE',  #86 ) ;
#218 = EDGE_CURVE ( 'NONE', #165, #87, #332, .T. ) ;
#219 = EDGE_LOOP ( 'NONE', ( #319, #65, #37, #45 ) ) ;
#220 = CARTESIAN_POINT ( 'NONE',  ( 4.950000000000081890, 0.000000000000000000, 23.99999999999998224 ) ) ;
#221 = ORIENTED_EDGE ( 'NONE', *, *, #94, .T. ) ;
#222 = PRODUCT_CONTEXT ( 'NONE', #296, 'mechanical' ) ;
#223 = ORIENTED_EDGE ( 'NONE', *, *, #174, .F. ) ;
#224 = CARTESIAN_POINT ( 'NONE',  ( 8.379555213223520053E-14, 0.000000000000000000, 24.00000000000000000 ) ) ;
#225 = CARTESIAN_POINT ( 'NONE',  ( 4.950000000000000178, 0.000000000000000000, -1.728283262727351011E-14 ) ) ;
#226 = ADVANCED_FACE ( 'NONE', ( #232 ), #76, .T. ) ;
#227 = DIRECTION ( 'NONE',  ( -3.491481338843133355E-15, 1.224646799147353207E-16, -1.000000000000000000 ) ) ;
#228 = CARTESIAN_POINT ( 'NONE',  ( 8.379555213223520053E-14, 4.949999999999997513, 24.00000000000000000 ) ) ;
#229 = AXIS2_PLACEMENT_3D ( 'NONE', #151, #17, #126 ) ;
#230 = VERTEX_POINT ( 'NONE', #147 ) ;
#231 = FACE_OUTER_BOUND ( 'NONE', #255, .T. ) ;
#232 = FACE_OUTER_BOUND ( 'NONE', #23, .T. ) ;
#233 = ADVANCED_FACE ( 'NONE', ( #68 ), #36, .T. ) ;
#234 = UNCERTAINTY_MEASURE_WITH_UNIT (LENGTH_MEASURE( 1.000000000000000082E-05 ), #238, 'distance_accuracy_value', 'NONE');
#235 = SURFACE_STYLE_USAGE ( .BOTH. , #98 ) ;
#236 = DIRECTION ( 'NONE',  ( -1.000000000000000000, 0.000000000000000000, 3.491481338843133355E-15 ) ) ;
#237 = STYLED_ITEM ( 'NONE', ( #334 ), #18 ) ;
#238 =( LENGTH_UNIT ( ) NAMED_UNIT ( * ) SI_UNIT ( .MILLI., .METRE. ) );
#239 =( LENGTH_UNIT ( ) NAMED_UNIT ( * ) SI_UNIT ( .MILLI., .METRE. ) );
#240 = FILL_AREA_STYLE_COLOUR ( '', #177 ) ;
#241 = EDGE_CURVE ( 'NONE', #81, #335, #140, .T. ) ;
#242 = VERTEX_POINT ( 'NONE', #293 ) ;
#243 = ORIENTED_EDGE ( 'NONE', *, *, #241, .F. ) ;
#244 = ADVANCED_FACE ( 'NONE', ( #54 ), #295, .T. ) ;
#245 = CYLINDRICAL_SURFACE ( 'NONE', #341, 4.949999999999999289 ) ;
#246 = VECTOR ( 'NONE', #333, 1000.000000000000000 ) ;
#247 = CARTESIAN_POINT ( 'NONE',  ( 0.000000000000000000, 0.000000000000000000, 0.000000000000000000 ) ) ;
#248 = ORIENTED_EDGE ( 'NONE', *, *, #309, .F. ) ;
#249 = ORIENTED_EDGE ( 'NONE', *, *, #159, .F. ) ;
#250 = EDGE_CURVE ( 'NONE', #338, #242, #56, .T. ) ;
#251 = DIRECTION ( 'NONE',  ( 1.000000000000000000, 0.000000000000000000, -3.491481338843133355E-15 ) ) ;
#252 = CARTESIAN_POINT ( 'NONE',  ( 2.513866563967056016E-13, -8.817456953860941711E-15, 72.00000000000000000 ) ) ;
#253 = UNCERTAINTY_MEASURE_WITH_UNIT (LENGTH_MEASURE( 1.000000000000000082E-05 ), #258, 'distance_accuracy_value', 'NONE');
#254 = DIRECTION ( 'NONE',  ( 4.275831445896958607E-31, 1.000000000000000000, 1.224646799147353207E-16 ) ) ;
#255 = EDGE_LOOP ( 'NONE', ( #77, #325, #289, #311 ) ) ;
#256 = CARTESIAN_POINT ( 'NONE',  ( 2.513866563967056016E-13, -8.817456953860941711E-15, 72.00000000000000000 ) ) ;
#257 = CARTESIAN_POINT ( 'NONE',  ( 8.379555213223520053E-14, -2.939152317953647894E-15, 24.00000000000000000 ) ) ;
#258 =( LENGTH_UNIT ( ) NAMED_UNIT ( * ) SI_UNIT ( .MILLI., .METRE. ) );
#259 = DIRECTION ( 'NONE',  ( 3.491481338843133355E-15, -0.000000000000000000, 1.000000000000000000 ) ) ;
#260 = AXIS2_PLACEMENT_3D ( 'NONE', #320, #89, #194 ) ;
#261 = SURFACE_STYLE_FILL_AREA ( #134 ) ;
#262 = CARTESIAN_POINT ( 'NONE',  ( 2.478951750578624304E-13, -8.694992273946206563E-15, 71.00000000000000000 ) ) ;
#263 = AXIS2_PLACEMENT_3D ( 'NONE', #116, #227, #91 ) ;
#264 = DIRECTION ( 'NONE',  ( -3.491481338843133355E-15, 0.000000000000000000, -1.000000000000000000 ) ) ;
#265 = EDGE_CURVE ( 'NONE', #230, #335, #21, .T. ) ;
#266 =( NAMED_UNIT ( * ) PLANE_ANGLE_UNIT ( ) SI_UNIT ( $, .RADIAN. ) );
#267 = DIRECTION ( 'NONE',  ( -3.491481338843133355E-15, 1.224646799147353207E-16, -1.000000000000000000 ) ) ;
#268 = VECTOR ( 'NONE', #109, 1000.000000000000000 ) ;
#269 =( NAMED_UNIT ( * ) PLANE_ANGLE_UNIT ( ) SI_UNIT ( $, .RADIAN. ) );
#270 = DIRECTION ( 'NONE',  ( -3.491481338843133355E-15, 1.224646799147353207E-16, -1.000000000000000000 ) ) ;
#271 = DIRECTION ( 'NONE',  ( 0.000000000000000000, 1.000000000000000000, 0.000000000000000000 ) ) ;
#272 = ORIENTED_EDGE ( 'NONE', *, *, #218, .F. ) ;
#273 = CARTESIAN_POINT ( 'NONE',  ( 6.123233995736743603E-16, -4.999999999999999112, -6.123233995736786004E-16 ) ) ;
#274 = VECTOR ( 'NONE', #14, 1000.000000000000227 ) ;
#275 = DIRECTION ( 'NONE',  ( 3.491481338843133355E-15, -0.000000000000000000, 1.000000000000000000 ) ) ;
#276 = DIRECTION ( 'NONE',  ( -3.491481338843133355E-15, 1.224646799147349263E-16, -1.000000000000000000 ) ) ;
#277 = VECTOR ( 'NONE', #167, 1000.000000000000000 ) ;
#278 = CIRCLE ( 'NONE', #31, 4.999999999999999112 ) ;
#279 = PRODUCT_RELATED_PRODUCT_CATEGORY ( 'part', '', ( #133 ) ) ;
#280 = CARTESIAN_POINT ( 'NONE',  ( 0.000000000000000000, 0.000000000000000000, 0.000000000000000000 ) ) ;
#281 = ORIENTED_EDGE ( 'NONE', *, *, #174, .T. ) ;
#282 = LINE ( 'NONE', #129, #317 ) ;
#283 = AXIS2_PLACEMENT_3D ( 'NONE', #228, #323, #28 ) ;
#284 = SURFACE_STYLE_USAGE ( .BOTH. , #128 ) ;
#285 = ADVANCED_BREP_SHAPE_REPRESENTATION ( '57005', ( #18, #108, #160 ), #132 ) ;
#286 = SURFACE_STYLE_FILL_AREA ( #213 ) ;
#287 = ORIENTED_EDGE ( 'NONE', *, *, #16, .T. ) ;
#288 = AXIS2_PLACEMENT_3D ( 'NONE', #92, #51, #164 ) ;
#289 = ORIENTED_EDGE ( 'NONE', *, *, #307, .F. ) ;
#290 = PRODUCT_DEFINITION_CONTEXT ( 'detailed design', #95, 'design' ) ;
#291 = ADVANCED_FACE ( 'NONE', ( #111 ), #2, .T. ) ;
#292 = VERTEX_POINT ( 'NONE', #59 ) ;
#293 = CARTESIAN_POINT ( 'NONE',  ( 1.667005269775435396E-13, -4.999999999999999112, 24.13910427085458110 ) ) ;
#294 = CARTESIAN_POINT ( 'NONE',  ( 8.379555213223520053E-14, -2.939152317953647894E-15, 24.00000000000000000 ) ) ;
#295 = CONICAL_SURFACE ( 'NONE', #46, 4.950000000000000178, 0.3450620389298209578 ) ;
#296 = APPLICATION_CONTEXT ( 'automotive_design' ) ;
#297 = VERTEX_POINT ( 'NONE', #196 ) ;
#298 = DIRECTION ( 'NONE',  ( -3.491481338843133355E-15, 1.224646799147349263E-16, -1.000000000000000000 ) ) ;
#299 = CARTESIAN_POINT ( 'NONE',  ( 8.428123209807734784E-14, -2.956187677958626419E-15, 24.13910427085458110 ) ) ;
#300 = CARTESIAN_POINT ( 'NONE',  ( 1.667005269775435144E-13, -5.000000000000007994, 71.00000000000000000 ) ) ;
#301 =( GEOMETRIC_REPRESENTATION_CONTEXT ( 3 ) GLOBAL_UNCERTAINTY_ASSIGNED_CONTEXT ( ( #234 ) ) GLOBAL_UNIT_ASSIGNED_CONTEXT ( ( #238, #156, #193 ) ) REPRESENTATION_CONTEXT ( 'NONE', 'WORKASPACE' ) );
#302 = CARTESIAN_POINT ( 'NONE',  ( 4.950000000000083666, 0.000000000000000000, 23.99999999999998224 ) ) ;
#303 = CYLINDRICAL_SURFACE ( 'NONE', #180, 4.999999999999999112 ) ;
#304 = CIRCLE ( 'NONE', #260, 3.999999999999995559 ) ;
#305 = EDGE_CURVE ( 'NONE', #90, #81, #215, .T. ) ;
#306 = DIRECTION ( 'NONE',  ( 3.491481338843133355E-15, -0.000000000000000000, 1.000000000000000000 ) ) ;
#307 = EDGE_CURVE ( 'NONE', #335, #242, #64, .T. ) ;
#308 = SURFACE_STYLE_FILL_AREA ( #122 ) ;
#309 = EDGE_CURVE ( 'NONE', #165, #153, #9, .T. ) ;
#310 = AXIS2_PLACEMENT_3D ( 'NONE', #299, #267, #172 ) ;
#311 = ORIENTED_EDGE ( 'NONE', *, *, #265, .F. ) ;
#312 =( NAMED_UNIT ( * ) PLANE_ANGLE_UNIT ( ) SI_UNIT ( $, .RADIAN. ) );
#313 = ADVANCED_FACE ( 'NONE', ( #29 ), #245, .T. ) ;
#314 = ORIENTED_EDGE ( 'NONE', *, *, #309, .T. ) ;
#315 = LINE ( 'NONE', #53, #246 ) ;
#316 = CARTESIAN_POINT ( 'NONE',  ( 8.403839211515627419E-14, -4.950000000000002842, 24.00000000000000000 ) ) ;
#317 = VECTOR ( 'NONE', #306, 1000.000000000000000 ) ;
#318 = ORIENTED_EDGE ( 'NONE', *, *, #307, .T. ) ;
#319 = ORIENTED_EDGE ( 'NONE', *, *, #250, .F. ) ;
#320 = CARTESIAN_POINT ( 'NONE',  ( 2.513866563967056016E-13, -8.817456953860941711E-15, 72.00000000000000000 ) ) ;
#321 = ORIENTED_EDGE ( 'NONE', *, *, #145, .T. ) ;
#322 = DIRECTION ( 'NONE',  ( 3.491481338843133355E-15, -0.000000000000000000, 1.000000000000000000 ) ) ;
#323 = DIRECTION ( 'NONE',  ( -3.491481338843133355E-15, 1.224646799147353207E-16, -1.000000000000000000 ) ) ;
#324 = ORIENTED_EDGE ( 'NONE', *, *, #16, .F. ) ;
#325 = ORIENTED_EDGE ( 'NONE', *, *, #250, .T. ) ;
#326 = ORIENTED_EDGE ( 'NONE', *, *, #123, .T. ) ;
#327 = PRODUCT_DEFINITION_FORMATION_WITH_SPECIFIED_SOURCE ( 'ANY', '', #133, .NOT_KNOWN. ) ;
#328 = PLANE ( 'NONE',  #135 ) ;
#329 = ORIENTED_EDGE ( 'NONE', *, *, #106, .F. ) ;
#330 = AXIS2_PLACEMENT_3D ( 'NONE', #262, #276, #33 ) ;
#331 = DIRECTION ( 'NONE',  ( -3.491481338843133355E-15, 1.224646799147353207E-16, -1.000000000000000000 ) ) ;
#332 = LINE ( 'NONE', #302, #158 ) ;
#333 = DIRECTION ( 'NONE',  ( -2.468850131082262188E-15, 0.7071067811865485719, -0.7071067811865465735 ) ) ;
#334 = PRESENTATION_STYLE_ASSIGNMENT (( #235 ) ) ;
#335 = VERTEX_POINT ( 'NONE', #142 ) ;
#336 = SURFACE_SIDE_STYLE ('',( #286 ) ) ;
#337 = EDGE_CURVE ( 'NONE', #242, #335, #41, .T. ) ;
#338 = VERTEX_POINT ( 'NONE', #300 ) ;
#339 =( NAMED_UNIT ( * ) SI_UNIT ( $, .STERADIAN. ) SOLID_ANGLE_UNIT ( ) );
#340 = CIRCLE ( 'NONE', #125, 4.999999999999999112 ) ;
#341 = AXIS2_PLACEMENT_3D ( 'NONE', #224, #322, #61 ) ;
#342 = DIRECTION ( 'NONE',  ( 0.000000000000000000, 0.000000000000000000, 1.000000000000000000 ) ) ;
#343 = DIRECTION ( 'NONE',  ( 1.000000000000000000, 0.000000000000000000, 0.000000000000000000 ) ) ;
ENDSEC;
END-ISO-10303-21;
