ISO-10303-21;
HEADER;
FILE_DESCRIPTION (( 'STEP AP214' ),
    '1' );
FILE_NAME ('57004.step',
    '2024-04-04T09:56:07',
    ( '' ),
    ( '' ),
    'SwSTEP 2.0',
    'SolidWorks 2022',
    '' );
FILE_SCHEMA (( 'AUTOMOTIVE_DESIGN' ));
ENDSEC;

DATA;
#1 = PLANE ( 'NONE',  #110 ) ;
#2 = CARTESIAN_POINT ( 'NONE',  ( -2.950000000000000178, 3.612708057484724144E-16, 1.029986994958724498E-14 ) ) ;
#3 = MECHANICAL_DESIGN_GEOMETRIC_PRESENTATION_REPRESENTATION (  '', ( #157 ), #187 ) ;
#4 = EDGE_LOOP ( 'NONE', ( #126, #205 ) ) ;
#5 = DIRECTION ( 'NONE',  ( 4.275831445896958607E-31, 1.000000000000000000, 1.224646799147353207E-16 ) ) ;
#6 = DIRECTION ( 'NONE',  ( 1.000000000000000000, 0.000000000000000000, 0.000000000000000000 ) ) ;
#7 = ADVANCED_FACE ( 'NONE', ( #130 ), #228, .T. ) ;
#8 = DIRECTION ( 'NONE',  ( 3.491481338843133355E-15, -0.000000000000000000, 1.000000000000000000 ) ) ;
#9 = ORIENTED_EDGE ( 'NONE', *, *, #192, .T. ) ;
#10 =( GEOMETRIC_REPRESENTATION_CONTEXT ( 3 ) GLOBAL_UNCERTAINTY_ASSIGNED_CONTEXT ( ( #327 ) ) GLOBAL_UNIT_ASSIGNED_CONTEXT ( ( #250, #146, #129 ) ) REPRESENTATION_CONTEXT ( 'NONE', 'WORKASPACE' ) );
#11 = FACE_OUTER_BOUND ( 'NONE', #238, .T. ) ;
#12 = LINE ( 'NONE', #225, #141 ) ;
#13 = EDGE_LOOP ( 'NONE', ( #67, #24 ) ) ;
#14 = COLOUR_RGB ( '',1.000000000000000000, 1.000000000000000000, 1.000000000000000000 ) ;
#15 = CARTESIAN_POINT ( 'NONE',  ( -2.949999999999945999, 3.612708057484691111E-16, 15.00000000000001066 ) ) ;
#16 = DIRECTION ( 'NONE',  ( 3.491481338843133355E-15, -0.000000000000000000, 1.000000000000000000 ) ) ;
#17 = CARTESIAN_POINT ( 'NONE',  ( 1.969195475107526960E-13, -6.907007947191071191E-15, 56.39999999999999147 ) ) ;
#18 = DIRECTION ( 'NONE',  ( -3.491481338843133355E-15, 1.224646799147353207E-16, -1.000000000000000000 ) ) ;
#19 = ORIENTED_EDGE ( 'NONE', *, *, #96, .F. ) ;
#20 = ORIENTED_EDGE ( 'NONE', *, *, #162, .T. ) ;
#21 = ADVANCED_FACE ( 'NONE', ( #58 ), #114, .T. ) ;
#22 = ORIENTED_EDGE ( 'NONE', *, *, #277, .F. ) ;
#23 = AXIS2_PLACEMENT_3D ( 'NONE', #258, #18, #237 ) ;
#24 = ORIENTED_EDGE ( 'NONE', *, *, #191, .F. ) ;
#25 = CARTESIAN_POINT ( 'NONE',  ( 1.969195475107526960E-13, -6.907007947191071191E-15, 56.39999999999999147 ) ) ;
#26 = ORIENTED_EDGE ( 'NONE', *, *, #76, .F. ) ;
#27 = DIRECTION ( 'NONE',  ( -2.398081733190337812E-14, -1.000000000000000000, 0.000000000000000000 ) ) ;
#28 = APPLICATION_PROTOCOL_DEFINITION ( 'draft international standard', 'automotive_design', 1998, #105 ) ;
#29 = CIRCLE ( 'NONE', #269, 2.950000000000000178 ) ;
#30 = VERTEX_POINT ( 'NONE', #103 ) ;
#31 = CARTESIAN_POINT ( 'NONE',  ( 5.237222008264700033E-14, -2.950000000000001954, 15.00000000000000000 ) ) ;
#32 = PRESENTATION_STYLE_ASSIGNMENT (( #104 ) ) ;
#33 =( NAMED_UNIT ( * ) SI_UNIT ( $, .STERADIAN. ) SOLID_ANGLE_UNIT ( ) );
#34 = EDGE_CURVE ( 'NONE', #175, #64, #214, .T. ) ;
#35 = FACE_OUTER_BOUND ( 'NONE', #279, .T. ) ;
#36 = CARTESIAN_POINT ( 'NONE',  ( 1.282749433769086356E-30, 2.999999999999996891, 3.673940397442055924E-16 ) ) ;
#37 = AXIS2_PLACEMENT_3D ( 'NONE', #256, #281, #48 ) ;
#38 = ORIENTED_EDGE ( 'NONE', *, *, #34, .F. ) ;
#39 = EDGE_CURVE ( 'NONE', #333, #331, #84, .T. ) ;
#40 = STYLED_ITEM ( 'NONE', ( #51 ), #71 ) ;
#41 = VECTOR ( 'NONE', #107, 1000.000000000000000 ) ;
#42 = PRESENTATION_STYLE_ASSIGNMENT (( #260 ) ) ;
#43 = DIRECTION ( 'NONE',  ( 3.491481338843133355E-15, -0.000000000000000000, 1.000000000000000000 ) ) ;
#44 = EDGE_CURVE ( 'NONE', #64, #331, #224, .T. ) ;
#45 = CYLINDRICAL_SURFACE ( 'NONE', #23, 2.999999999999996891 ) ;
#46 = VECTOR ( 'NONE', #171, 1000.000000000000000 ) ;
#47 = CARTESIAN_POINT ( 'NONE',  ( 5.237222008264700033E-14, 0.000000000000000000, 15.00000000000000000 ) ) ;
#48 = DIRECTION ( 'NONE',  ( 0.000000000000000000, 1.000000000000000000, 0.000000000000000000 ) ) ;
#49 = CARTESIAN_POINT ( 'NONE',  ( 5.285790004848912240E-14, -1.854005558726007719E-15, 15.13910427085457400 ) ) ;
#50 = DIRECTION ( 'NONE',  ( 1.000000000000000000, 0.000000000000000000, -3.528251137579948177E-15 ) ) ;
#51 = PRESENTATION_STYLE_ASSIGNMENT (( #210 ) ) ;
#52 = DIRECTION ( 'NONE',  ( 0.000000000000000000, 1.000000000000000000, 0.000000000000000000 ) ) ;
#53 = EDGE_LOOP ( 'NONE', ( #145, #101, #108, #189 ) ) ;
#54 = AXIS2_PLACEMENT_3D ( 'NONE', #165, #197, #253 ) ;
#55 = EDGE_CURVE ( 'NONE', #223, #325, #196, .T. ) ;
#56 = EDGE_LOOP ( 'NONE', ( #153, #293, #245, #26 ) ) ;
#57 = DIRECTION ( 'NONE',  ( -3.491481338843133750E-15, 1.224646799147345072E-16, -1.000000000000000000 ) ) ;
#58 = FACE_OUTER_BOUND ( 'NONE', #4, .T. ) ;
#59 =( NAMED_UNIT ( * ) PLANE_ANGLE_UNIT ( ) SI_UNIT ( $, .RADIAN. ) );
#60 = CARTESIAN_POINT ( 'NONE',  ( 1.969195475107526960E-13, 2.999999999999990230, 56.39999999999999147 ) ) ;
#61 =( NAMED_UNIT ( * ) SI_UNIT ( $, .STERADIAN. ) SOLID_ANGLE_UNIT ( ) );
#62 = PLANE ( 'NONE',  #73 ) ;
#63 = DIRECTION ( 'NONE',  ( 0.000000000000000000, 0.000000000000000000, 1.000000000000000000 ) ) ;
#64 = VERTEX_POINT ( 'NONE', #248 ) ;
#65 = UNCERTAINTY_MEASURE_WITH_UNIT (LENGTH_MEASURE( 1.000000000000000082E-05 ), #231, 'distance_accuracy_value', 'NONE');
#66 = ADVANCED_FACE ( 'NONE', ( #11 ), #278, .T. ) ;
#67 = ORIENTED_EDGE ( 'NONE', *, *, #314, .F. ) ;
#68 = DIRECTION ( 'NONE',  ( 3.491481338843133355E-15, -1.224646799147353207E-16, 1.000000000000000000 ) ) ;
#69 = FILL_AREA_STYLE_COLOUR ( '', #14 ) ;
#70 = SHAPE_DEFINITION_REPRESENTATION ( #247, #267 ) ;
#71 = MANIFOLD_SOLID_BREP ( 'Corps-Déplacer/Copier1[1]', #284 ) ;
#72 = DIRECTION ( 'NONE',  ( 2.486899575160350651E-14, -1.000000000000000000, 0.000000000000000000 ) ) ;
#73 = AXIS2_PLACEMENT_3D ( 'NONE', #272, #241, #5 ) ;
#74 = DIRECTION ( 'NONE',  ( -3.491481338843133355E-15, 1.224646799147353207E-16, -1.000000000000000000 ) ) ;
#75 = CARTESIAN_POINT ( 'NONE',  ( 1.990144363140586139E-13, -6.980486755139912911E-15, 57.00000000000000000 ) ) ;
#76 = EDGE_CURVE ( 'NONE', #212, #160, #322, .T. ) ;
#77 = DIRECTION ( 'NONE',  ( 3.285674118869259055E-15, -0.3382550599108846145, 0.9410544694355814643 ) ) ;
#78 = ORIENTED_EDGE ( 'NONE', *, *, #308, .F. ) ;
#79 = SURFACE_STYLE_FILL_AREA ( #307 ) ;
#80 = CARTESIAN_POINT ( 'NONE',  ( 9.620620753268172848E-32, 2.950000000000000178, 2.755455298081549092E-17 ) ) ;
#81 = CARTESIAN_POINT ( 'NONE',  ( 1.252561178193650831E-13, -2.999999999999996447, 15.13910427085457400 ) ) ;
#82 = ORIENTED_EDGE ( 'NONE', *, *, #192, .F. ) ;
#83 = AXIS2_PLACEMENT_3D ( 'NONE', #17, #124, #72 ) ;
#84 = LINE ( 'NONE', #31, #273 ) ;
#85 = VERTEX_POINT ( 'NONE', #15 ) ;
#86 = SURFACE_STYLE_FILL_AREA ( #135 ) ;
#87 = AXIS2_PLACEMENT_3D ( 'NONE', #265, #172, #233 ) ;
#88 = FACE_OUTER_BOUND ( 'NONE', #56, .T. ) ;
#89 = DIRECTION ( 'NONE',  ( -1.000000000000000000, 0.000000000000000000, 3.491481338843133355E-15 ) ) ;
#90 = CARTESIAN_POINT ( 'NONE',  ( 5.237222008264700033E-14, -1.836970198721029589E-15, 15.00000000000000000 ) ) ;
#91 = ORIENTED_EDGE ( 'NONE', *, *, #55, .T. ) ;
#92 = CARTESIAN_POINT ( 'NONE',  ( -2.949999999999946887, 3.612708057484691604E-16, 15.00000000000001066 ) ) ;
#93 = VECTOR ( 'NONE', #163, 1000.000000000000114 ) ;
#94 = AXIS2_PLACEMENT_3D ( 'NONE', #268, #206, #27 ) ;
#95 = ADVANCED_FACE ( 'NONE', ( #35 ), #249, .T. ) ;
#96 = EDGE_CURVE ( 'NONE', #30, #85, #234, .T. ) ;
#97 = ORIENTED_EDGE ( 'NONE', *, *, #244, .F. ) ;
#98 = CARTESIAN_POINT ( 'NONE',  ( 5.237222008264700033E-14, 0.000000000000000000, 15.00000000000000000 ) ) ;
#99 = ADVANCED_FACE ( 'NONE', ( #242 ), #255, .T. ) ;
#100 = AXIS2_PLACEMENT_3D ( 'NONE', #298, #292, #217 ) ;
#101 = ORIENTED_EDGE ( 'NONE', *, *, #311, .F. ) ;
#102 = COLOUR_RGB ( '',1.000000000000000000, 1.000000000000000000, 1.000000000000000000 ) ;
#103 = CARTESIAN_POINT ( 'NONE',  ( 2.950000000000051248, 0.000000000000000000, 14.99999999999998934 ) ) ;
#104 = SURFACE_STYLE_USAGE ( .BOTH. , #111 ) ;
#105 = APPLICATION_CONTEXT ( 'automotive_design' ) ;
#106 = ADVANCED_FACE ( 'NONE', ( #116 ), #1, .F. ) ;
#107 = DIRECTION ( 'NONE',  ( 3.491481338843133355E-15, -0.000000000000000000, 1.000000000000000000 ) ) ;
#108 = ORIENTED_EDGE ( 'NONE', *, *, #39, .T. ) ;
#109 = CARTESIAN_POINT ( 'NONE',  ( 5.237222008264700033E-14, 2.949999999999998845, 15.00000000000000000 ) ) ;
#110 = AXIS2_PLACEMENT_3D ( 'NONE', #109, #320, #89 ) ;
#111 = SURFACE_SIDE_STYLE ('',( #86 ) ) ;
#112 = PRESENTATION_LAYER_ASSIGNMENT (  '', '', ( #157 ) ) ;
#113 = ORIENTED_EDGE ( 'NONE', *, *, #302, .T. ) ;
#114 = PLANE ( 'NONE',  #289 ) ;
#115 = CARTESIAN_POINT ( 'NONE',  ( 0.000000000000000000, 0.000000000000000000, 0.000000000000000000 ) ) ;
#116 = FACE_OUTER_BOUND ( 'NONE', #182, .T. ) ;
#117 = EDGE_CURVE ( 'NONE', #297, #85, #222, .T. ) ;
#118 = EDGE_LOOP ( 'NONE', ( #20, #323, #78, #291 ) ) ;
#119 = AXIS2_PLACEMENT_3D ( 'NONE', #98, #152, #252 ) ;
#120 = AXIS2_PLACEMENT_3D ( 'NONE', #47, #259, #50 ) ;
#121 = ORIENTED_EDGE ( 'NONE', *, *, #244, .T. ) ;
#122 = VERTEX_POINT ( 'NONE', #220 ) ;
#123 = DIRECTION ( 'NONE',  ( 3.491481338843133355E-15, -1.224646799147353207E-16, 1.000000000000000000 ) ) ;
#124 = DIRECTION ( 'NONE',  ( -3.491481338843133750E-15, 1.224646799147345072E-16, -1.000000000000000000 ) ) ;
#125 = ADVANCED_FACE ( 'NONE', ( #88 ), #198, .T. ) ;
#126 = ORIENTED_EDGE ( 'NONE', *, *, #277, .T. ) ;
#127 = FACE_OUTER_BOUND ( 'NONE', #13, .T. ) ;
#128 = APPLICATION_CONTEXT ( 'automotive_design' ) ;
#129 =( NAMED_UNIT ( * ) SI_UNIT ( $, .STERADIAN. ) SOLID_ANGLE_UNIT ( ) );
#130 = FACE_OUTER_BOUND ( 'NONE', #118, .T. ) ;
#131 = VECTOR ( 'NONE', #140, 1000.000000000000000 ) ;
#132 = CARTESIAN_POINT ( 'NONE',  ( 1.982976465481754348E-13, -2.400000000000005684, 57.00000000000000000 ) ) ;
#133 = PRODUCT_DEFINITION ( 'UNKNOWN', '', #209, #251 ) ;
#134 = LINE ( 'NONE', #36, #131 ) ;
#135 = FILL_AREA_STYLE ('',( #142 ) ) ;
#136 = FACE_OUTER_BOUND ( 'NONE', #328, .T. ) ;
#137 =( NAMED_UNIT ( * ) SI_UNIT ( $, .STERADIAN. ) SOLID_ANGLE_UNIT ( ) );
#138 = DIRECTION ( 'NONE',  ( 3.491481338843133355E-15, -1.224646799147353207E-16, 1.000000000000000000 ) ) ;
#139 = CARTESIAN_POINT ( 'NONE',  ( 1.990144363140586139E-13, -6.980486755139912911E-15, 57.00000000000000000 ) ) ;
#140 = DIRECTION ( 'NONE',  ( -3.491481338843133355E-15, 1.224646799147353207E-16, -1.000000000000000000 ) ) ;
#141 = VECTOR ( 'NONE', #43, 1000.000000000000000 ) ;
#142 = FILL_AREA_STYLE_COLOUR ( '', #174 ) ;
#143 = DIRECTION ( 'NONE',  ( 1.000000000000000000, 0.000000000000000000, -3.528251137579948177E-15 ) ) ;
#144 = DIRECTION ( 'NONE',  ( 0.000000000000000000, 1.000000000000000000, 0.000000000000000000 ) ) ;
#145 = ORIENTED_EDGE ( 'NONE', *, *, #55, .F. ) ;
#146 =( NAMED_UNIT ( * ) PLANE_ANGLE_UNIT ( ) SI_UNIT ( $, .RADIAN. ) );
#147 = AXIS2_PLACEMENT_3D ( 'NONE', #25, #57, #215 ) ;
#148 = EDGE_CURVE ( 'NONE', #122, #30, #12, .T. ) ;
#149 = CONICAL_SURFACE ( 'NONE', #87, 2.950000000000000178, 0.3450620389298217905 ) ;
#150 = CARTESIAN_POINT ( 'NONE',  ( 5.273349088839547028E-14, 2.949999999999998845, 15.00000000000000000 ) ) ;
#151 = DIRECTION ( 'NONE',  ( 0.000000000000000000, -1.000000000000000000, 0.000000000000000000 ) ) ;
#152 = DIRECTION ( 'NONE',  ( 3.491481338843133355E-15, -0.000000000000000000, 1.000000000000000000 ) ) ;
#153 = ORIENTED_EDGE ( 'NONE', *, *, #155, .F. ) ;
#154 = DIRECTION ( 'NONE',  ( 0.000000000000000000, 1.000000000000000000, 0.000000000000000000 ) ) ;
#155 = EDGE_CURVE ( 'NONE', #175, #212, #329, .T. ) ;
#156 = PRESENTATION_LAYER_ASSIGNMENT (  '', '', ( #40 ) ) ;
#157 = STYLED_ITEM ( 'NONE', ( #32 ), #267 ) ;
#158 = EDGE_CURVE ( 'NONE', #223, #333, #180, .T. ) ;
#159 = CARTESIAN_POINT ( 'NONE',  ( 0.000000000000000000, 0.000000000000000000, 0.000000000000000000 ) ) ;
#160 = VERTEX_POINT ( 'NONE', #303 ) ;
#161 = ORIENTED_EDGE ( 'NONE', *, *, #314, .T. ) ;
#162 = EDGE_CURVE ( 'NONE', #160, #64, #167, .T. ) ;
#163 = DIRECTION ( 'NONE',  ( -2.468850131082289798E-15, 0.7071067811865405783, -0.7071067811865545671 ) ) ;
#164 = FACE_OUTER_BOUND ( 'NONE', #216, .T. ) ;
#165 = CARTESIAN_POINT ( 'NONE',  ( 1.969195475107526960E-13, -6.907007947191071191E-15, 56.39999999999999147 ) ) ;
#166 = ORIENTED_EDGE ( 'NONE', *, *, #148, .T. ) ;
#167 = CIRCLE ( 'NONE', #83, 2.999999999999996891 ) ;
#168 = EDGE_LOOP ( 'NONE', ( #38, #22, #213, #97 ) ) ;
#169 = MECHANICAL_DESIGN_GEOMETRIC_PRESENTATION_REPRESENTATION (  '', ( #339 ), #10 ) ;
#170 = UNCERTAINTY_MEASURE_WITH_UNIT (LENGTH_MEASURE( 1.000000000000000082E-05 ), #188, 'distance_accuracy_value', 'NONE');
#171 = DIRECTION ( 'NONE',  ( 3.327098416510785243E-15, 0.3382550599108844480, 0.9410544694355815754 ) ) ;
#172 = DIRECTION ( 'NONE',  ( 3.491481338843133355E-15, -1.224646799147353207E-16, 1.000000000000000000 ) ) ;
#173 = MANIFOLD_SOLID_BREP ( 'Corps-Déplacer/Copier1[2]', #336 ) ;
#174 = COLOUR_RGB ( '',1.000000000000000000, 1.000000000000000000, 1.000000000000000000 ) ;
#175 = VERTEX_POINT ( 'NONE', #132 ) ;
#176 = DIRECTION ( 'NONE',  ( 3.491481338843133355E-15, -0.000000000000000000, 1.000000000000000000 ) ) ;
#177 = CARTESIAN_POINT ( 'NONE',  ( 5.297939248831439906E-14, 2.949999999999998845, 15.00000000000000000 ) ) ;
#178 = CARTESIAN_POINT ( 'NONE',  ( 5.261506006556806137E-14, -2.950000000000001954, 15.00000000000000000 ) ) ;
#179 = FACE_OUTER_BOUND ( 'NONE', #53, .T. ) ;
#180 = CIRCLE ( 'NONE', #37, 2.950000000000000178 ) ;
#181 = ADVANCED_FACE ( 'NONE', ( #179 ), #149, .T. ) ;
#182 = EDGE_LOOP ( 'NONE', ( #204, #9 ) ) ;
#183 = DIRECTION ( 'NONE',  ( 4.275831445896958607E-31, 1.000000000000000000, 1.224646799147353207E-16 ) ) ;
#184 =( NAMED_UNIT ( * ) PLANE_ANGLE_UNIT ( ) SI_UNIT ( $, .RADIAN. ) );
#185 =( NAMED_UNIT ( * ) PLANE_ANGLE_UNIT ( ) SI_UNIT ( $, .RADIAN. ) );
#186 = ORIENTED_EDGE ( 'NONE', *, *, #148, .F. ) ;
#187 =( GEOMETRIC_REPRESENTATION_CONTEXT ( 3 ) GLOBAL_UNCERTAINTY_ASSIGNED_CONTEXT ( ( #170 ) ) GLOBAL_UNIT_ASSIGNED_CONTEXT ( ( #188, #185, #61 ) ) REPRESENTATION_CONTEXT ( 'NONE', 'WORKASPACE' ) );
#188 =( LENGTH_UNIT ( ) NAMED_UNIT ( * ) SI_UNIT ( .MILLI., .METRE. ) );
#189 = ORIENTED_EDGE ( 'NONE', *, *, #313, .T. ) ;
#190 = CARTESIAN_POINT ( 'NONE',  ( 1.972869415504969014E-13, -3.000000000000003997, 56.39999999999999147 ) ) ;
#191 = EDGE_CURVE ( 'NONE', #297, #122, #301, .T. ) ;
#192 = EDGE_CURVE ( 'NONE', #85, #30, #219, .T. ) ;
#193 = DIRECTION ( 'NONE',  ( 0.000000000000000000, -1.000000000000000000, 0.000000000000000000 ) ) ;
#194 = PRESENTATION_LAYER_ASSIGNMENT (  '', '', ( #339 ) ) ;
#195 =( GEOMETRIC_REPRESENTATION_CONTEXT ( 3 ) GLOBAL_UNCERTAINTY_ASSIGNED_CONTEXT ( ( #226 ) ) GLOBAL_UNIT_ASSIGNED_CONTEXT ( ( #246, #59, #137 ) ) REPRESENTATION_CONTEXT ( 'NONE', 'WORKASPACE' ) );
#196 = LINE ( 'NONE', #150, #46 ) ;
#197 = DIRECTION ( 'NONE',  ( -3.491481338843133750E-15, 1.224646799147345072E-16, -1.000000000000000000 ) ) ;
#198 = CONICAL_SURFACE ( 'NONE', #54, 2.999999999999996891, 0.7853981633974381760 ) ;
#199 = DIRECTION ( 'NONE',  ( -3.491481338843133355E-15, 1.224646799147353207E-16, -1.000000000000000000 ) ) ;
#200 = FILL_AREA_STYLE_COLOUR ( '', #102 ) ;
#201 = ORIENTED_EDGE ( 'NONE', *, *, #44, .F. ) ;
#202 = PRODUCT_RELATED_PRODUCT_CATEGORY ( 'part', '', ( #335 ) ) ;
#203 = FILL_AREA_STYLE ('',( #200 ) ) ;
#204 = ORIENTED_EDGE ( 'NONE', *, *, #96, .T. ) ;
#205 = ORIENTED_EDGE ( 'NONE', *, *, #155, .T. ) ;
#206 = DIRECTION ( 'NONE',  ( -3.491481338843133750E-15, 1.224646799147345072E-16, -1.000000000000000000 ) ) ;
#207 = ADVANCED_FACE ( 'NONE', ( #127 ), #310, .F. ) ;
#208 = AXIS2_PLACEMENT_3D ( 'NONE', #266, #294, #183 ) ;
#209 = PRODUCT_DEFINITION_FORMATION_WITH_SPECIFIED_SOURCE ( 'ANY', '', #335, .NOT_KNOWN. ) ;
#210 = SURFACE_STYLE_USAGE ( .BOTH. , #287 ) ;
#211 = DIRECTION ( 'NONE',  ( -3.491481338843133355E-15, 1.224646799147353207E-16, -1.000000000000000000 ) ) ;
#212 = VERTEX_POINT ( 'NONE', #312 ) ;
#213 = ORIENTED_EDGE ( 'NONE', *, *, #76, .T. ) ;
#214 = LINE ( 'NONE', #190, #324 ) ;
#215 = DIRECTION ( 'NONE',  ( 0.000000000000000000, 1.000000000000000000, 0.000000000000000000 ) ) ;
#216 = EDGE_LOOP ( 'NONE', ( #317, #254 ) ) ;
#217 = DIRECTION ( 'NONE',  ( 0.000000000000000000, -1.000000000000000000, 0.000000000000000000 ) ) ;
#218 = AXIS2_PLACEMENT_3D ( 'NONE', #90, #138, #193 ) ;
#219 = CIRCLE ( 'NONE', #120, 2.949999999999998845 ) ;
#220 = CARTESIAN_POINT ( 'NONE',  ( 2.950000000000000178, 0.000000000000000000, -1.029986994958724340E-14 ) ) ;
#221 = PRODUCT_CONTEXT ( 'NONE', #105, 'mechanical' ) ;
#222 = LINE ( 'NONE', #92, #41 ) ;
#223 = VERTEX_POINT ( 'NONE', #177 ) ;
#224 = LINE ( 'NONE', #304, #300 ) ;
#225 = CARTESIAN_POINT ( 'NONE',  ( 2.950000000000052136, 0.000000000000000000, 14.99999999999998934 ) ) ;
#226 = UNCERTAINTY_MEASURE_WITH_UNIT (LENGTH_MEASURE( 1.000000000000000082E-05 ), #246, 'distance_accuracy_value', 'NONE');
#227 = ORIENTED_EDGE ( 'NONE', *, *, #158, .F. ) ;
#228 = CYLINDRICAL_SURFACE ( 'NONE', #208, 2.999999999999996891 ) ;
#229 =( GEOMETRIC_REPRESENTATION_CONTEXT ( 3 ) GLOBAL_UNCERTAINTY_ASSIGNED_CONTEXT ( ( #65 ) ) GLOBAL_UNIT_ASSIGNED_CONTEXT ( ( #231, #184, #33 ) ) REPRESENTATION_CONTEXT ( 'NONE', 'WORKASPACE' ) );
#230 = ORIENTED_EDGE ( 'NONE', *, *, #308, .T. ) ;
#231 =( LENGTH_UNIT ( ) NAMED_UNIT ( * ) SI_UNIT ( .MILLI., .METRE. ) );
#232 = ORIENTED_EDGE ( 'NONE', *, *, #191, .T. ) ;
#233 = DIRECTION ( 'NONE',  ( 0.000000000000000000, -1.000000000000000000, 0.000000000000000000 ) ) ;
#234 = CIRCLE ( 'NONE', #295, 2.949999999999998845 ) ;
#235 = AXIS2_PLACEMENT_3D ( 'NONE', #280, #16, #283 ) ;
#236 = CARTESIAN_POINT ( 'NONE',  ( 5.237222008264700033E-14, 0.000000000000000000, 15.00000000000000000 ) ) ;
#237 = DIRECTION ( 'NONE',  ( 4.275831445896958607E-31, 1.000000000000000000, 1.224646799147353207E-16 ) ) ;
#238 = EDGE_LOOP ( 'NONE', ( #332, #232, #166, #82 ) ) ;
#239 = CYLINDRICAL_SURFACE ( 'NONE', #341, 2.949999999999999289 ) ;
#240 = AXIS2_PLACEMENT_3D ( 'NONE', #49, #262, #52 ) ;
#241 = DIRECTION ( 'NONE',  ( -3.491481338843133355E-15, 1.224646799147353207E-16, -1.000000000000000000 ) ) ;
#242 = FACE_OUTER_BOUND ( 'NONE', #168, .T. ) ;
#243 = CARTESIAN_POINT ( 'NONE',  ( 5.237222008264700033E-14, -1.836970198721029589E-15, 15.00000000000000000 ) ) ;
#244 = EDGE_CURVE ( 'NONE', #64, #160, #257, .T. ) ;
#245 = ORIENTED_EDGE ( 'NONE', *, *, #162, .F. ) ;
#246 =( LENGTH_UNIT ( ) NAMED_UNIT ( * ) SI_UNIT ( .MILLI., .METRE. ) );
#247 = PRODUCT_DEFINITION_SHAPE ( 'NONE', 'NONE',  #133 ) ;
#248 = CARTESIAN_POINT ( 'NONE',  ( 1.252561178193650578E-13, -3.000000000000003997, 56.39999999999999147 ) ) ;
#249 = CONICAL_SURFACE ( 'NONE', #218, 2.950000000000000178, 0.3450620389298217905 ) ;
#250 =( LENGTH_UNIT ( ) NAMED_UNIT ( * ) SI_UNIT ( .MILLI., .METRE. ) );
#251 = PRODUCT_DEFINITION_CONTEXT ( 'detailed design', #128, 'design' ) ;
#252 = DIRECTION ( 'NONE',  ( 1.000000000000000000, 0.000000000000000000, -3.528251137579947388E-15 ) ) ;
#253 = DIRECTION ( 'NONE',  ( 0.000000000000000000, 1.000000000000000000, 0.000000000000000000 ) ) ;
#254 = ORIENTED_EDGE ( 'NONE', *, *, #158, .T. ) ;
#255 = CONICAL_SURFACE ( 'NONE', #147, 2.999999999999996891, 0.7853981633974381760 ) ;
#256 = CARTESIAN_POINT ( 'NONE',  ( 5.237222008264700033E-14, -1.836970198721029589E-15, 15.00000000000000000 ) ) ;
#257 = CIRCLE ( 'NONE', #94, 2.999999999999996891 ) ;
#258 = CARTESIAN_POINT ( 'NONE',  ( 0.000000000000000000, 0.000000000000000000, 0.000000000000000000 ) ) ;
#259 = DIRECTION ( 'NONE',  ( 3.491481338843133355E-15, -0.000000000000000000, 1.000000000000000000 ) ) ;
#260 = SURFACE_STYLE_USAGE ( .BOTH. , #275 ) ;
#261 = DIRECTION ( 'NONE',  ( 1.000000000000000000, 0.000000000000000000, -3.491481338843132961E-15 ) ) ;
#262 = DIRECTION ( 'NONE',  ( -3.491481338843133355E-15, 1.224646799147353207E-16, -1.000000000000000000 ) ) ;
#263 = SURFACE_STYLE_FILL_AREA ( #203 ) ;
#264 = MECHANICAL_DESIGN_GEOMETRIC_PRESENTATION_REPRESENTATION (  '', ( #40 ), #229 ) ;
#265 = CARTESIAN_POINT ( 'NONE',  ( 5.237222008264700033E-14, -1.836970198721029589E-15, 15.00000000000000000 ) ) ;
#266 = CARTESIAN_POINT ( 'NONE',  ( 0.000000000000000000, 0.000000000000000000, 0.000000000000000000 ) ) ;
#267 = ADVANCED_BREP_SHAPE_REPRESENTATION ( '57004', ( #71, #173, #330 ), #195 ) ;
#268 = CARTESIAN_POINT ( 'NONE',  ( 1.969195475107526960E-13, -6.907007947191071191E-15, 56.39999999999999147 ) ) ;
#269 = AXIS2_PLACEMENT_3D ( 'NONE', #243, #199, #154 ) ;
#270 = CARTESIAN_POINT ( 'NONE',  ( 5.237222008264700033E-14, 0.000000000000000000, 15.00000000000000000 ) ) ;
#271 = ADVANCED_FACE ( 'NONE', ( #136 ), #239, .T. ) ;
#272 = CARTESIAN_POINT ( 'NONE',  ( 5.237222008264700033E-14, 2.949999999999998845, 15.00000000000000000 ) ) ;
#273 = VECTOR ( 'NONE', #77, 1000.000000000000114 ) ;
#274 = DIRECTION ( 'NONE',  ( -4.275831445896958607E-31, -1.000000000000000000, -1.224646799147353207E-16 ) ) ;
#275 = SURFACE_SIDE_STYLE ('',( #79 ) ) ;
#276 = CIRCLE ( 'NONE', #100, 2.399999999999999023 ) ;
#277 = EDGE_CURVE ( 'NONE', #212, #175, #276, .T. ) ;
#278 = CYLINDRICAL_SURFACE ( 'NONE', #119, 2.949999999999999289 ) ;
#279 = EDGE_LOOP ( 'NONE', ( #227, #91, #230, #288 ) ) ;
#280 = CARTESIAN_POINT ( 'NONE',  ( 0.000000000000000000, 0.000000000000000000, 0.000000000000000000 ) ) ;
#281 = DIRECTION ( 'NONE',  ( -3.491481338843133355E-15, 1.224646799147353207E-16, -1.000000000000000000 ) ) ;
#282 = FACE_OUTER_BOUND ( 'NONE', #309, .T. ) ;
#283 = DIRECTION ( 'NONE',  ( 1.000000000000000000, 0.000000000000000000, -3.491481338843132961E-15 ) ) ;
#284 = CLOSED_SHELL ( 'NONE', ( #125, #95, #7, #305, #21, #340, #181, #99 ) ) ;
#285 = AXIS2_PLACEMENT_3D ( 'NONE', #337, #211, #144 ) ;
#286 = DIRECTION ( 'NONE',  ( 1.000000000000000000, 0.000000000000000000, -3.491481338843133355E-15 ) ) ;
#287 = SURFACE_SIDE_STYLE ('',( #263 ) ) ;
#288 = ORIENTED_EDGE ( 'NONE', *, *, #39, .F. ) ;
#289 = AXIS2_PLACEMENT_3D ( 'NONE', #139, #68, #274 ) ;
#290 = CIRCLE ( 'NONE', #326, 2.950000000000000178 ) ;
#291 = ORIENTED_EDGE ( 'NONE', *, *, #302, .F. ) ;
#292 = DIRECTION ( 'NONE',  ( 3.491481338843133355E-15, -1.224646799147353207E-16, 1.000000000000000000 ) ) ;
#293 = ORIENTED_EDGE ( 'NONE', *, *, #34, .T. ) ;
#294 = DIRECTION ( 'NONE',  ( -3.491481338843133355E-15, 1.224646799147353207E-16, -1.000000000000000000 ) ) ;
#295 = AXIS2_PLACEMENT_3D ( 'NONE', #270, #8, #143 ) ;
#296 = CIRCLE ( 'NONE', #240, 2.999999999999994671 ) ;
#297 = VERTEX_POINT ( 'NONE', #2 ) ;
#298 = CARTESIAN_POINT ( 'NONE',  ( 1.990144363140586139E-13, -6.980486755139912911E-15, 57.00000000000000000 ) ) ;
#299 = APPLICATION_PROTOCOL_DEFINITION ( 'draft international standard', 'automotive_design', 1998, #128 ) ;
#300 = VECTOR ( 'NONE', #74, 1000.000000000000000 ) ;
#301 = CIRCLE ( 'NONE', #235, 2.950000000000000178 ) ;
#302 = EDGE_CURVE ( 'NONE', #160, #325, #134, .T. ) ;
#303 = CARTESIAN_POINT ( 'NONE',  ( 1.248887237796209281E-13, 2.999999999999990230, 56.39999999999999147 ) ) ;
#304 = CARTESIAN_POINT ( 'NONE',  ( 3.673940397442043105E-16, -2.999999999999996891, -3.673940397442068250E-16 ) ) ;
#305 = ADVANCED_FACE ( 'NONE', ( #164 ), #62, .T. ) ;
#306 = CARTESIAN_POINT ( 'NONE',  ( 5.285790004848912240E-14, 2.999999999999993339, 15.13910427085457400 ) ) ;
#307 = FILL_AREA_STYLE ('',( #69 ) ) ;
#308 = EDGE_CURVE ( 'NONE', #325, #331, #319, .T. ) ;
#309 = EDGE_LOOP ( 'NONE', ( #201, #121, #113, #321 ) ) ;
#310 = PLANE ( 'NONE',  #316 ) ;
#311 = EDGE_CURVE ( 'NONE', #333, #223, #29, .T. ) ;
#312 = CARTESIAN_POINT ( 'NONE',  ( 1.979669919124056423E-13, 2.399999999999991918, 57.00000000000000000 ) ) ;
#313 = EDGE_CURVE ( 'NONE', #331, #325, #296, .T. ) ;
#314 = EDGE_CURVE ( 'NONE', #122, #297, #290, .T. ) ;
#315 = AXIS2_PLACEMENT_3D ( 'NONE', #75, #123, #151 ) ;
#316 = AXIS2_PLACEMENT_3D ( 'NONE', #80, #176, #286 ) ;
#317 = ORIENTED_EDGE ( 'NONE', *, *, #311, .T. ) ;
#318 = DIRECTION ( 'NONE',  ( -2.382254525458741924E-15, -0.7071067811865403563, -0.7071067811865547892 ) ) ;
#319 = CIRCLE ( 'NONE', #285, 2.999999999999994671 ) ;
#320 = DIRECTION ( 'NONE',  ( -3.491481338843133355E-15, 0.000000000000000000, -1.000000000000000000 ) ) ;
#321 = ORIENTED_EDGE ( 'NONE', *, *, #313, .F. ) ;
#322 = LINE ( 'NONE', #60, #93 ) ;
#323 = ORIENTED_EDGE ( 'NONE', *, *, #44, .T. ) ;
#324 = VECTOR ( 'NONE', #318, 1000.000000000000114 ) ;
#325 = VERTEX_POINT ( 'NONE', #306 ) ;
#326 = AXIS2_PLACEMENT_3D ( 'NONE', #159, #334, #261 ) ;
#327 = UNCERTAINTY_MEASURE_WITH_UNIT (LENGTH_MEASURE( 1.000000000000000082E-05 ), #250, 'distance_accuracy_value', 'NONE');
#328 = EDGE_LOOP ( 'NONE', ( #161, #338, #19, #186 ) ) ;
#329 = CIRCLE ( 'NONE', #315, 2.399999999999999023 ) ;
#330 = AXIS2_PLACEMENT_3D ( 'NONE', #115, #63, #6 ) ;
#331 = VERTEX_POINT ( 'NONE', #81 ) ;
#332 = ORIENTED_EDGE ( 'NONE', *, *, #117, .F. ) ;
#333 = VERTEX_POINT ( 'NONE', #178 ) ;
#334 = DIRECTION ( 'NONE',  ( 3.491481338843133355E-15, -0.000000000000000000, 1.000000000000000000 ) ) ;
#335 = PRODUCT ( '57004', '57004', '', ( #221 ) ) ;
#336 = CLOSED_SHELL ( 'NONE', ( #271, #66, #106, #207 ) ) ;
#337 = CARTESIAN_POINT ( 'NONE',  ( 5.285790004848912240E-14, -1.854005558726007719E-15, 15.13910427085457400 ) ) ;
#338 = ORIENTED_EDGE ( 'NONE', *, *, #117, .T. ) ;
#339 = STYLED_ITEM ( 'NONE', ( #42 ), #173 ) ;
#340 = ADVANCED_FACE ( 'NONE', ( #282 ), #45, .T. ) ;
#341 = AXIS2_PLACEMENT_3D ( 'NONE', #236, #342, #343 ) ;
#342 = DIRECTION ( 'NONE',  ( 3.491481338843133355E-15, -0.000000000000000000, 1.000000000000000000 ) ) ;
#343 = DIRECTION ( 'NONE',  ( 1.000000000000000000, 0.000000000000000000, -3.528251137579947388E-15 ) ) ;
ENDSEC;
END-ISO-10303-21;
