ISO-10303-21;
HEADER;
FILE_DESCRIPTION (( 'STEP AP214' ),
    '1' );
FILE_NAME ('57003.step',
    '2024-04-04T09:56:07',
    ( '' ),
    ( '' ),
    'SwSTEP 2.0',
    'SolidWorks 2022',
    '' );
FILE_SCHEMA (( 'AUTOMOTIVE_DESIGN' ));
ENDSEC;

DATA;
#1 = DIRECTION ( 'NONE',  ( 1.000000000000000000, 0.000000000000000000, -3.469446951953616161E-15 ) ) ;
#2 =( GEOMETRIC_REPRESENTATION_CONTEXT ( 3 ) GLOBAL_UNCERTAINTY_ASSIGNED_CONTEXT ( ( #242 ) ) GLOBAL_UNIT_ASSIGNED_CONTEXT ( ( #293, #182, #290 ) ) REPRESENTATION_CONTEXT ( 'NONE', 'WORKASPACE' ) );
#3 = AXIS2_PLACEMENT_3D ( 'NONE', #154, #21, #46 ) ;
#4 = ORIENTED_EDGE ( 'NONE', *, *, #283, .F. ) ;
#5 = ADVANCED_FACE ( 'NONE', ( #179 ), #111, .T. ) ;
#6 =( LENGTH_UNIT ( ) NAMED_UNIT ( * ) SI_UNIT ( .MILLI., .METRE. ) );
#7 = ORIENTED_EDGE ( 'NONE', *, *, #104, .F. ) ;
#8 = VERTEX_POINT ( 'NONE', #326 ) ;
#9 = DIRECTION ( 'NONE',  ( 3.491481338843133355E-15, -0.000000000000000000, 1.000000000000000000 ) ) ;
#10 = FILL_AREA_STYLE ('',( #140 ) ) ;
#11 = DIRECTION ( 'NONE',  ( 3.491481338843133355E-15, -0.000000000000000000, 1.000000000000000000 ) ) ;
#12 = DIRECTION ( 'NONE',  ( -3.491481338843133355E-15, 1.224646799147353207E-16, -1.000000000000000000 ) ) ;
#13 = CARTESIAN_POINT ( 'NONE',  ( 1.969195475107527465E-13, -6.907007947191072769E-15, 56.40000000000000568 ) ) ;
#14 = FACE_OUTER_BOUND ( 'NONE', #110, .T. ) ;
#15 = PRESENTATION_STYLE_ASSIGNMENT (( #276 ) ) ;
#16 = LINE ( 'NONE', #271, #128 ) ;
#17 = DIRECTION ( 'NONE',  ( 3.491481338843133355E-15, -1.224646799147353207E-16, 1.000000000000000000 ) ) ;
#18 = DIRECTION ( 'NONE',  ( 0.000000000000000000, -1.000000000000000000, 0.000000000000000000 ) ) ;
#19 = FACE_OUTER_BOUND ( 'NONE', #22, .T. ) ;
#20 = AXIS2_PLACEMENT_3D ( 'NONE', #121, #267, #124 ) ;
#21 = DIRECTION ( 'NONE',  ( 0.000000000000000000, 0.000000000000000000, 1.000000000000000000 ) ) ;
#22 = EDGE_LOOP ( 'NONE', ( #259, #26, #78, #306 ) ) ;
#23 = ORIENTED_EDGE ( 'NONE', *, *, #141, .T. ) ;
#24 = SHAPE_DEFINITION_REPRESENTATION ( #337, #186 ) ;
#25 = CARTESIAN_POINT ( 'NONE',  ( 1.227099319523568416E-13, 2.999999999999989786, 56.40000000000000568 ) ) ;
#26 = ORIENTED_EDGE ( 'NONE', *, *, #98, .F. ) ;
#27 = CIRCLE ( 'NONE', #327, 2.400000000000002132 ) ;
#28 = ORIENTED_EDGE ( 'NONE', *, *, #266, .T. ) ;
#29 = DIRECTION ( 'NONE',  ( -3.491481338843133355E-15, 1.224646799147353207E-16, -1.000000000000000000 ) ) ;
#30 = CARTESIAN_POINT ( 'NONE',  ( 2.500000000000041744, 0.000000000000000000, 12.49999999999999289 ) ) ;
#31 = ORIENTED_EDGE ( 'NONE', *, *, #104, .T. ) ;
#32 = DIRECTION ( 'NONE',  ( 3.491481338843133355E-15, -0.000000000000000000, 1.000000000000000000 ) ) ;
#33 = MECHANICAL_DESIGN_GEOMETRIC_PRESENTATION_REPRESENTATION (  '', ( #82 ), #217 ) ;
#34 = EDGE_CURVE ( 'NONE', #178, #48, #16, .T. ) ;
#35 = DIRECTION ( 'NONE',  ( 4.275831445896958607E-31, 1.000000000000000000, 1.224646799147353207E-16 ) ) ;
#36 = APPLICATION_PROTOCOL_DEFINITION ( 'draft international standard', 'automotive_design', 1998, #243 ) ;
#37 = CARTESIAN_POINT ( 'NONE',  ( 4.364351673553916694E-14, -1.530808498934191521E-15, 12.50000000000000000 ) ) ;
#38 = CONICAL_SURFACE ( 'NONE', #99, 2.999999999999996447, 0.7853981633974469467 ) ;
#39 = CARTESIAN_POINT ( 'NONE',  ( 2.500000000000042633, 0.000000000000000000, 12.49999999999999289 ) ) ;
#40 = VERTEX_POINT ( 'NONE', #248 ) ;
#41 = CARTESIAN_POINT ( 'NONE',  ( 1.979669919124056928E-13, 2.399999999999995026, 57.00000000000000000 ) ) ;
#42 = EDGE_CURVE ( 'NONE', #8, #137, #205, .T. ) ;
#43 = CONICAL_SURFACE ( 'NONE', #334, 2.499999999999999556, 0.3450620389298191815 ) ;
#44 = DIRECTION ( 'NONE',  ( 0.000000000000000000, -1.000000000000000000, 0.000000000000000000 ) ) ;
#45 = SURFACE_STYLE_USAGE ( .BOTH. , #277 ) ;
#46 = DIRECTION ( 'NONE',  ( 1.000000000000000000, 0.000000000000000000, 0.000000000000000000 ) ) ;
#47 = CIRCLE ( 'NONE', #144, 2.400000000000002132 ) ;
#48 = VERTEX_POINT ( 'NONE', #125 ) ;
#49 = ORIENTED_EDGE ( 'NONE', *, *, #283, .T. ) ;
#50 = STYLED_ITEM ( 'NONE', ( #315 ), #186 ) ;
#51 = ORIENTED_EDGE ( 'NONE', *, *, #266, .F. ) ;
#52 = CARTESIAN_POINT ( 'NONE',  ( 4.364351673553916694E-14, 0.000000000000000000, 12.50000000000000000 ) ) ;
#53 = EDGE_LOOP ( 'NONE', ( #148, #308, #238, #155 ) ) ;
#54 = CARTESIAN_POINT ( 'NONE',  ( 4.364351673553916694E-14, 2.499999999999997780, 12.50000000000000000 ) ) ;
#55 = CARTESIAN_POINT ( 'NONE',  ( 4.364351673553916694E-14, -2.500000000000001332, 12.50000000000000000 ) ) ;
#56 = CONICAL_SURFACE ( 'NONE', #63, 2.999999999999996447, 0.7853981633974469467 ) ;
#57 = AXIS2_PLACEMENT_3D ( 'NONE', #310, #80, #180 ) ;
#58 = ORIENTED_EDGE ( 'NONE', *, *, #42, .T. ) ;
#59 = COLOUR_RGB ( '',1.000000000000000000, 1.000000000000000000, 1.000000000000000000 ) ;
#60 = VERTEX_POINT ( 'NONE', #95 ) ;
#61 = DIRECTION ( 'NONE',  ( 0.000000000000000000, 1.000000000000000000, 0.000000000000000000 ) ) ;
#62 = CARTESIAN_POINT ( 'NONE',  ( 2.499999999999999556, 0.000000000000000000, -8.728703347107831810E-15 ) ) ;
#63 = AXIS2_PLACEMENT_3D ( 'NONE', #224, #197, #198 ) ;
#64 = CIRCLE ( 'NONE', #342, 2.499999999999999556 ) ;
#65 = FACE_OUTER_BOUND ( 'NONE', #333, .T. ) ;
#66 = SURFACE_SIDE_STYLE ('',( #324 ) ) ;
#67 = EDGE_CURVE ( 'NONE', #178, #289, #75, .T. ) ;
#68 = UNCERTAINTY_MEASURE_WITH_UNIT (LENGTH_MEASURE( 1.000000000000000082E-05 ), #6, 'distance_accuracy_value', 'NONE');
#69 = DIRECTION ( 'NONE',  ( -3.491481338843133355E-15, 1.224646799147353207E-16, -1.000000000000000000 ) ) ;
#70 = EDGE_CURVE ( 'NONE', #60, #8, #302, .T. ) ;
#71 = CARTESIAN_POINT ( 'NONE',  ( 4.364351673553916694E-14, 0.000000000000000000, 12.50000000000000000 ) ) ;
#72 = PRODUCT_RELATED_PRODUCT_CATEGORY ( 'part', '', ( #189 ) ) ;
#73 = CARTESIAN_POINT ( 'NONE',  ( 0.000000000000000000, 0.000000000000000000, 0.000000000000000000 ) ) ;
#74 = DIRECTION ( 'NONE',  ( 3.491481338843133355E-15, -1.224646799147353207E-16, 1.000000000000000000 ) ) ;
#75 = CIRCLE ( 'NONE', #116, 2.499999999999999556 ) ;
#76 = VECTOR ( 'NONE', #294, 1000.000000000000000 ) ;
#77 =( NAMED_UNIT ( * ) PLANE_ANGLE_UNIT ( ) SI_UNIT ( $, .RADIAN. ) );
#78 = ORIENTED_EDGE ( 'NONE', *, *, #85, .T. ) ;
#79 = ADVANCED_FACE ( 'NONE', ( #19 ), #56, .T. ) ;
#80 = DIRECTION ( 'NONE',  ( -3.491481338843133355E-15, 1.224646799147347537E-16, -1.000000000000000000 ) ) ;
#81 = ORIENTED_EDGE ( 'NONE', *, *, #216, .F. ) ;
#82 = STYLED_ITEM ( 'NONE', ( #15 ), #311 ) ;
#83 = DIRECTION ( 'NONE',  ( 3.491481338843133355E-15, -1.224646799147353207E-16, 1.000000000000000000 ) ) ;
#84 = FACE_OUTER_BOUND ( 'NONE', #92, .T. ) ;
#85 = EDGE_CURVE ( 'NONE', #279, #203, #106, .T. ) ;
#86 = DIRECTION ( 'NONE',  ( 3.491481338843133355E-15, -1.224646799147353207E-16, 1.000000000000000000 ) ) ;
#87 = DIRECTION ( 'NONE',  ( 3.285674118869261421E-15, -0.3382550599108821165, 0.9410544694355824635 ) ) ;
#88 = CARTESIAN_POINT ( 'NONE',  ( 0.000000000000000000, 0.000000000000000000, 0.000000000000000000 ) ) ;
#89 = CARTESIAN_POINT ( 'NONE',  ( 4.850031639396095566E-14, -1.701162098983990575E-15, 13.89104270854589096 ) ) ;
#90 = EDGE_LOOP ( 'NONE', ( #7, #173, #314, #117 ) ) ;
#91 = CIRCLE ( 'NONE', #57, 2.999999999999996447 ) ;
#92 = EDGE_LOOP ( 'NONE', ( #28, #101, #343, #282 ) ) ;
#93 = AXIS2_PLACEMENT_3D ( 'NONE', #253, #17, #227 ) ;
#94 = ADVANCED_FACE ( 'NONE', ( #200 ), #309, .F. ) ;
#95 = CARTESIAN_POINT ( 'NONE',  ( 1.230773259921010218E-13, -3.000000000000003553, 56.40000000000000568 ) ) ;
#96 = DIRECTION ( 'NONE',  ( 1.000000000000000000, 0.000000000000000000, -3.469446951953616161E-15 ) ) ;
#97 = EDGE_CURVE ( 'NONE', #233, #60, #285, .T. ) ;
#98 = EDGE_CURVE ( 'NONE', #279, #233, #47, .T. ) ;
#99 = AXIS2_PLACEMENT_3D ( 'NONE', #181, #113, #157 ) ;
#100 = DIRECTION ( 'NONE',  ( -2.382254525458720231E-15, -0.7071067811865464625, -0.7071067811865486830 ) ) ;
#101 = ORIENTED_EDGE ( 'NONE', *, *, #34, .T. ) ;
#102 = MECHANICAL_DESIGN_GEOMETRIC_PRESENTATION_REPRESENTATION (  '', ( #250 ), #305 ) ;
#103 = CARTESIAN_POINT ( 'NONE',  ( 4.364351673553916694E-14, 2.499999999999997780, 12.50000000000000000 ) ) ;
#104 = EDGE_CURVE ( 'NONE', #40, #284, #341, .T. ) ;
#105 = FACE_OUTER_BOUND ( 'NONE', #90, .T. ) ;
#106 = LINE ( 'NONE', #340, #188 ) ;
#107 = AXIS2_PLACEMENT_3D ( 'NONE', #268, #86, #214 ) ;
#108 = FILL_AREA_STYLE_COLOUR ( '', #164 ) ;
#109 =( NAMED_UNIT ( * ) SI_UNIT ( $, .STERADIAN. ) SOLID_ANGLE_UNIT ( ) );
#110 = EDGE_LOOP ( 'NONE', ( #51, #206 ) ) ;
#111 = CYLINDRICAL_SURFACE ( 'NONE', #307, 2.999999999999996447 ) ;
#112 = FACE_OUTER_BOUND ( 'NONE', #158, .T. ) ;
#113 = DIRECTION ( 'NONE',  ( -3.491481338843133355E-15, 1.224646799147347537E-16, -1.000000000000000000 ) ) ;
#114 = EDGE_LOOP ( 'NONE', ( #81, #4, #174, #58 ) ) ;
#115 = ADVANCED_FACE ( 'NONE', ( #112 ), #265, .T. ) ;
#116 = AXIS2_PLACEMENT_3D ( 'NONE', #73, #221, #195 ) ;
#117 = ORIENTED_EDGE ( 'NONE', *, *, #219, .F. ) ;
#118 = ORIENTED_EDGE ( 'NONE', *, *, #42, .F. ) ;
#119 = PLANE ( 'NONE',  #107 ) ;
#120 = DIRECTION ( 'NONE',  ( 0.000000000000000000, 1.000000000000000000, 0.000000000000000000 ) ) ;
#121 = CARTESIAN_POINT ( 'NONE',  ( -3.099977798275294946E-31, 2.499999999999999556, -8.878689293818310814E-17 ) ) ;
#122 = MECHANICAL_DESIGN_GEOMETRIC_PRESENTATION_REPRESENTATION (  '', ( #50 ), #263 ) ;
#123 = PRODUCT_DEFINITION_FORMATION_WITH_SPECIFIED_SOURCE ( 'ANY', '', #189, .NOT_KNOWN. ) ;
#124 = DIRECTION ( 'NONE',  ( 1.000000000000000000, 0.000000000000000000, -3.491481338843133355E-15 ) ) ;
#125 = CARTESIAN_POINT ( 'NONE',  ( -2.499999999999954259, 3.061616997868381169E-16, 12.50000000000000888 ) ) ;
#126 = DIRECTION ( 'NONE',  ( -3.491481338843133355E-15, 1.224646799147353207E-16, -1.000000000000000000 ) ) ;
#127 = CARTESIAN_POINT ( 'NONE',  ( 4.364351673553916694E-14, -1.530808498934191521E-15, 12.50000000000000000 ) ) ;
#128 = VECTOR ( 'NONE', #143, 1000.000000000000000 ) ;
#129 = AXIS2_PLACEMENT_3D ( 'NONE', #13, #169, #297 ) ;
#130 = EDGE_CURVE ( 'NONE', #203, #60, #91, .T. ) ;
#131 = PRESENTATION_LAYER_ASSIGNMENT (  '', '', ( #250 ) ) ;
#132 = DIRECTION ( 'NONE',  ( 3.327098416510787610E-15, 0.3382550599108819500, 0.9410544694355824635 ) ) ;
#133 = CARTESIAN_POINT ( 'NONE',  ( 4.850031639396095566E-14, 2.999999999999992450, 13.89104270854589096 ) ) ;
#134 = CIRCLE ( 'NONE', #274, 2.499999999999997780 ) ;
#135 = LINE ( 'NONE', #210, #145 ) ;
#136 = EDGE_LOOP ( 'NONE', ( #338, #318, #286, #176 ) ) ;
#137 = VERTEX_POINT ( 'NONE', #133 ) ;
#138 = DIRECTION ( 'NONE',  ( 0.000000000000000000, -1.000000000000000000, 0.000000000000000000 ) ) ;
#139 = CARTESIAN_POINT ( 'NONE',  ( -2.499999999999999556, 3.061616997868409272E-16, 8.728703347107833388E-15 ) ) ;
#140 = FILL_AREA_STYLE_COLOUR ( '', #159 ) ;
#141 = EDGE_CURVE ( 'NONE', #201, #48, #134, .T. ) ;
#142 = CYLINDRICAL_SURFACE ( 'NONE', #269, 2.499999999999998668 ) ;
#143 = DIRECTION ( 'NONE',  ( 3.491481338843133355E-15, -0.000000000000000000, 1.000000000000000000 ) ) ;
#144 = AXIS2_PLACEMENT_3D ( 'NONE', #255, #146, #18 ) ;
#145 = VECTOR ( 'NONE', #132, 1000.000000000000000 ) ;
#146 = DIRECTION ( 'NONE',  ( 3.491481338843133355E-15, -1.224646799147353207E-16, 1.000000000000000000 ) ) ;
#147 = PRESENTATION_STYLE_ASSIGNMENT (( #45 ) ) ;
#148 = ORIENTED_EDGE ( 'NONE', *, *, #130, .T. ) ;
#149 = CLOSED_SHELL ( 'NONE', ( #231, #260, #322, #115, #339, #5, #331, #79 ) ) ;
#150 = PRODUCT_CONTEXT ( 'NONE', #243, 'mechanical' ) ;
#151 = DIRECTION ( 'NONE',  ( -1.000000000000000000, 0.000000000000000000, 3.491481338843133355E-15 ) ) ;
#152 = EDGE_CURVE ( 'NONE', #60, #203, #320, .T. ) ;
#153 = CYLINDRICAL_SURFACE ( 'NONE', #184, 2.499999999999998668 ) ;
#154 = CARTESIAN_POINT ( 'NONE',  ( 0.000000000000000000, 0.000000000000000000, 0.000000000000000000 ) ) ;
#155 = ORIENTED_EDGE ( 'NONE', *, *, #301, .F. ) ;
#156 = ADVANCED_FACE ( 'NONE', ( #65 ), #142, .T. ) ;
#157 = DIRECTION ( 'NONE',  ( 0.000000000000000000, 1.000000000000000000, 0.000000000000000000 ) ) ;
#158 = EDGE_LOOP ( 'NONE', ( #49, #31 ) ) ;
#159 = COLOUR_RGB ( '',1.000000000000000000, 1.000000000000000000, 1.000000000000000000 ) ;
#160 = ORIENTED_EDGE ( 'NONE', *, *, #67, .T. ) ;
#161 = CARTESIAN_POINT ( 'NONE',  ( 4.364351673553916694E-14, -1.530808498934191521E-15, 12.50000000000000000 ) ) ;
#162 = EDGE_CURVE ( 'NONE', #48, #201, #312, .T. ) ;
#163 = DIRECTION ( 'NONE',  ( -3.491481338843133355E-15, 1.224646799147353207E-16, -1.000000000000000000 ) ) ;
#164 = COLOUR_RGB ( '',1.000000000000000000, 1.000000000000000000, 1.000000000000000000 ) ;
#165 = PLANE ( 'NONE',  #20 ) ;
#166 = ORIENTED_EDGE ( 'NONE', *, *, #162, .T. ) ;
#167 = AXIS2_PLACEMENT_3D ( 'NONE', #272, #11, #329 ) ;
#168 = UNCERTAINTY_MEASURE_WITH_UNIT (LENGTH_MEASURE( 1.000000000000000082E-05 ), #303, 'distance_accuracy_value', 'NONE');
#169 = DIRECTION ( 'NONE',  ( -3.491481338843133355E-15, 1.224646799147347537E-16, -1.000000000000000000 ) ) ;
#170 = CARTESIAN_POINT ( 'NONE',  ( 3.673940397442042612E-16, -2.999999999999996447, -3.673940397442067757E-16 ) ) ;
#171 = CARTESIAN_POINT ( 'NONE',  ( 0.000000000000000000, 0.000000000000000000, 0.000000000000000000 ) ) ;
#172 = CIRCLE ( 'NONE', #167, 2.499999999999999556 ) ;
#173 = ORIENTED_EDGE ( 'NONE', *, *, #216, .T. ) ;
#174 = ORIENTED_EDGE ( 'NONE', *, *, #219, .T. ) ;
#175 = DIRECTION ( 'NONE',  ( -3.491481338843133355E-15, 0.000000000000000000, -1.000000000000000000 ) ) ;
#176 = ORIENTED_EDGE ( 'NONE', *, *, #85, .F. ) ;
#177 =( NAMED_UNIT ( * ) PLANE_ANGLE_UNIT ( ) SI_UNIT ( $, .RADIAN. ) );
#178 = VERTEX_POINT ( 'NONE', #139 ) ;
#179 = FACE_OUTER_BOUND ( 'NONE', #232, .T. ) ;
#180 = DIRECTION ( 'NONE',  ( 2.575717417130363805E-14, -1.000000000000000000, 0.000000000000000000 ) ) ;
#181 = CARTESIAN_POINT ( 'NONE',  ( 1.969195475107527465E-13, -6.907007947191072769E-15, 56.40000000000000568 ) ) ;
#182 =( NAMED_UNIT ( * ) PLANE_ANGLE_UNIT ( ) SI_UNIT ( $, .RADIAN. ) );
#183 = AXIS2_PLACEMENT_3D ( 'NONE', #127, #222, #61 ) ;
#184 = AXIS2_PLACEMENT_3D ( 'NONE', #52, #32, #1 ) ;
#185 = DIRECTION ( 'NONE',  ( 3.491481338843133355E-15, -0.000000000000000000, 1.000000000000000000 ) ) ;
#186 = ADVANCED_BREP_SHAPE_REPRESENTATION ( '57003', ( #192, #311, #3 ), #2 ) ;
#187 = CARTESIAN_POINT ( 'NONE',  ( 1.282749433769086181E-30, 2.999999999999996447, 3.673940397442055431E-16 ) ) ;
#188 = VECTOR ( 'NONE', #330, 1000.000000000000114 ) ;
#189 = PRODUCT ( '57003', '57003', '', ( #150 ) ) ;
#190 = CARTESIAN_POINT ( 'NONE',  ( 4.364351673553916694E-14, 0.000000000000000000, 12.50000000000000000 ) ) ;
#191 =( NAMED_UNIT ( * ) SI_UNIT ( $, .STERADIAN. ) SOLID_ANGLE_UNIT ( ) );
#192 = MANIFOLD_SOLID_BREP ( 'Corps-Déplacer/Copier1[1]', #149 ) ;
#193 = APPLICATION_CONTEXT ( 'automotive_design' ) ;
#194 = ADVANCED_FACE ( 'NONE', ( #84 ), #153, .T. ) ;
#195 = DIRECTION ( 'NONE',  ( 1.000000000000000000, 0.000000000000000000, -3.491481338843133355E-15 ) ) ;
#196 = SURFACE_STYLE_FILL_AREA ( #278 ) ;
#197 = DIRECTION ( 'NONE',  ( -3.491481338843133355E-15, 1.224646799147347537E-16, -1.000000000000000000 ) ) ;
#198 = DIRECTION ( 'NONE',  ( 0.000000000000000000, 1.000000000000000000, 0.000000000000000000 ) ) ;
#199 = FILL_AREA_STYLE_COLOUR ( '', #59 ) ;
#200 = FACE_OUTER_BOUND ( 'NONE', #212, .T. ) ;
#201 = VERTEX_POINT ( 'NONE', #30 ) ;
#202 = DIRECTION ( 'NONE',  ( 4.275831445896958607E-31, 1.000000000000000000, 1.224646799147353207E-16 ) ) ;
#203 = VERTEX_POINT ( 'NONE', #25 ) ;
#204 = ORIENTED_EDGE ( 'NONE', *, *, #162, .F. ) ;
#205 = CIRCLE ( 'NONE', #319, 2.999999999999993783 ) ;
#206 = ORIENTED_EDGE ( 'NONE', *, *, #67, .F. ) ;
#207 = DIRECTION ( 'NONE',  ( 0.000000000000000000, 1.000000000000000000, 0.000000000000000000 ) ) ;
#208 = FILL_AREA_STYLE ('',( #108 ) ) ;
#209 = PRODUCT_DEFINITION ( 'UNKNOWN', '', #123, #226 ) ;
#210 = CARTESIAN_POINT ( 'NONE',  ( 4.394967843532600481E-14, 2.499999999999997780, 12.50000000000000000 ) ) ;
#211 = AXIS2_PLACEMENT_3D ( 'NONE', #89, #258, #207 ) ;
#212 = EDGE_LOOP ( 'NONE', ( #23, #166 ) ) ;
#213 = DIRECTION ( 'NONE',  ( 1.000000000000000000, 0.000000000000000000, -3.469446951953617344E-15 ) ) ;
#214 = DIRECTION ( 'NONE',  ( -4.275831445896958607E-31, -1.000000000000000000, -1.224646799147353207E-16 ) ) ;
#215 = FACE_OUTER_BOUND ( 'NONE', #53, .T. ) ;
#216 = EDGE_CURVE ( 'NONE', #40, #137, #135, .T. ) ;
#217 =( GEOMETRIC_REPRESENTATION_CONTEXT ( 3 ) GLOBAL_UNCERTAINTY_ASSIGNED_CONTEXT ( ( #168 ) ) GLOBAL_UNIT_ASSIGNED_CONTEXT ( ( #303, #335, #191 ) ) REPRESENTATION_CONTEXT ( 'NONE', 'WORKASPACE' ) );
#218 = DIRECTION ( 'NONE',  ( 0.000000000000000000, 1.000000000000000000, 0.000000000000000000 ) ) ;
#219 = EDGE_CURVE ( 'NONE', #284, #8, #316, .T. ) ;
#220 = UNCERTAINTY_MEASURE_WITH_UNIT (LENGTH_MEASURE( 1.000000000000000082E-05 ), #336, 'distance_accuracy_value', 'NONE');
#221 = DIRECTION ( 'NONE',  ( 3.491481338843133355E-15, -0.000000000000000000, 1.000000000000000000 ) ) ;
#222 = DIRECTION ( 'NONE',  ( -3.491481338843133355E-15, 1.224646799147353207E-16, -1.000000000000000000 ) ) ;
#223 = VECTOR ( 'NONE', #246, 1000.000000000000000 ) ;
#224 = CARTESIAN_POINT ( 'NONE',  ( 1.969195475107527465E-13, -6.907007947191072769E-15, 56.40000000000000568 ) ) ;
#225 = CARTESIAN_POINT ( 'NONE',  ( 1.972869415504969519E-13, -3.000000000000003553, 56.40000000000000568 ) ) ;
#226 = PRODUCT_DEFINITION_CONTEXT ( 'detailed design', #193, 'design' ) ;
#227 = DIRECTION ( 'NONE',  ( 0.000000000000000000, -1.000000000000000000, 0.000000000000000000 ) ) ;
#228 = AXIS2_PLACEMENT_3D ( 'NONE', #103, #29, #202 ) ;
#229 = CIRCLE ( 'NONE', #211, 2.999999999999993783 ) ;
#230 = ORIENTED_EDGE ( 'NONE', *, *, #152, .T. ) ;
#231 = ADVANCED_FACE ( 'NONE', ( #236 ), #38, .T. ) ;
#232 = EDGE_LOOP ( 'NONE', ( #256, #230, #239, #118 ) ) ;
#233 = VERTEX_POINT ( 'NONE', #317 ) ;
#234 = VECTOR ( 'NONE', #87, 1000.000000000000114 ) ;
#235 = FACE_OUTER_BOUND ( 'NONE', #321, .T. ) ;
#236 = FACE_OUTER_BOUND ( 'NONE', #136, .T. ) ;
#237 = SURFACE_SIDE_STYLE ('',( #291 ) ) ;
#238 = ORIENTED_EDGE ( 'NONE', *, *, #247, .F. ) ;
#239 = ORIENTED_EDGE ( 'NONE', *, *, #301, .T. ) ;
#240 = CARTESIAN_POINT ( 'NONE',  ( 4.364351673553916694E-14, 0.000000000000000000, 12.50000000000000000 ) ) ;
#241 = LINE ( 'NONE', #187, #76 ) ;
#242 = UNCERTAINTY_MEASURE_WITH_UNIT (LENGTH_MEASURE( 1.000000000000000082E-05 ), #293, 'distance_accuracy_value', 'NONE');
#243 = APPLICATION_CONTEXT ( 'automotive_design' ) ;
#244 = DIRECTION ( 'NONE',  ( 3.491481338843133355E-15, -0.000000000000000000, 1.000000000000000000 ) ) ;
#245 = ORIENTED_EDGE ( 'NONE', *, *, #98, .T. ) ;
#246 = DIRECTION ( 'NONE',  ( 3.491481338843133355E-15, -0.000000000000000000, 1.000000000000000000 ) ) ;
#247 = EDGE_CURVE ( 'NONE', #137, #8, #229, .T. ) ;
#248 = CARTESIAN_POINT ( 'NONE',  ( 4.640869443451558296E-14, 2.499999999999997780, 12.50000000000000000 ) ) ;
#249 = DIRECTION ( 'NONE',  ( 4.275831445896958607E-31, 1.000000000000000000, 1.224646799147353207E-16 ) ) ;
#250 = STYLED_ITEM ( 'NONE', ( #147 ), #192 ) ;
#251 = CARTESIAN_POINT ( 'NONE',  ( 4.607191656475005499E-14, -2.500000000000001332, 12.50000000000000000 ) ) ;
#252 = LINE ( 'NONE', #39, #223 ) ;
#253 = CARTESIAN_POINT ( 'NONE',  ( 4.364351673553916694E-14, -1.530808498934191521E-15, 12.50000000000000000 ) ) ;
#254 = AXIS2_PLACEMENT_3D ( 'NONE', #171, #69, #249 ) ;
#255 = CARTESIAN_POINT ( 'NONE',  ( 1.990144363140586139E-13, -6.980486755139912911E-15, 57.00000000000000000 ) ) ;
#256 = ORIENTED_EDGE ( 'NONE', *, *, #70, .F. ) ;
#257 = PRESENTATION_LAYER_ASSIGNMENT (  '', '', ( #82 ) ) ;
#258 = DIRECTION ( 'NONE',  ( -3.491481338843133355E-15, 1.224646799147353207E-16, -1.000000000000000000 ) ) ;
#259 = ORIENTED_EDGE ( 'NONE', *, *, #97, .F. ) ;
#260 = ADVANCED_FACE ( 'NONE', ( #105 ), #43, .T. ) ;
#261 = ORIENTED_EDGE ( 'NONE', *, *, #280, .T. ) ;
#262 = PRESENTATION_LAYER_ASSIGNMENT (  '', '', ( #50 ) ) ;
#263 =( GEOMETRIC_REPRESENTATION_CONTEXT ( 3 ) GLOBAL_UNCERTAINTY_ASSIGNED_CONTEXT ( ( #68 ) ) GLOBAL_UNIT_ASSIGNED_CONTEXT ( ( #6, #77, #295 ) ) REPRESENTATION_CONTEXT ( 'NONE', 'WORKASPACE' ) );
#264 = SURFACE_STYLE_USAGE ( .BOTH. , #237 ) ;
#265 = PLANE ( 'NONE',  #228 ) ;
#266 = EDGE_CURVE ( 'NONE', #289, #178, #172, .T. ) ;
#267 = DIRECTION ( 'NONE',  ( 3.491481338843133355E-15, -0.000000000000000000, 1.000000000000000000 ) ) ;
#268 = CARTESIAN_POINT ( 'NONE',  ( 1.990144363140586139E-13, -6.980486755139912911E-15, 57.00000000000000000 ) ) ;
#269 = AXIS2_PLACEMENT_3D ( 'NONE', #190, #244, #96 ) ;
#270 = DIRECTION ( 'NONE',  ( 1.000000000000000000, 0.000000000000000000, -3.469446951953617344E-15 ) ) ;
#271 = CARTESIAN_POINT ( 'NONE',  ( -2.499999999999955147, 3.061616997868381662E-16, 12.50000000000000888 ) ) ;
#272 = CARTESIAN_POINT ( 'NONE',  ( 0.000000000000000000, 0.000000000000000000, 0.000000000000000000 ) ) ;
#273 = VECTOR ( 'NONE', #100, 1000.000000000000000 ) ;
#274 = AXIS2_PLACEMENT_3D ( 'NONE', #71, #185, #270 ) ;
#275 = FACE_OUTER_BOUND ( 'NONE', #114, .T. ) ;
#276 = SURFACE_STYLE_USAGE ( .BOTH. , #66 ) ;
#277 = SURFACE_SIDE_STYLE ('',( #196 ) ) ;
#278 = FILL_AREA_STYLE ('',( #199 ) ) ;
#279 = VERTEX_POINT ( 'NONE', #41 ) ;
#280 = EDGE_CURVE ( 'NONE', #289, #201, #252, .T. ) ;
#281 = APPLICATION_PROTOCOL_DEFINITION ( 'draft international standard', 'automotive_design', 1998, #193 ) ;
#282 = ORIENTED_EDGE ( 'NONE', *, *, #280, .F. ) ;
#283 = EDGE_CURVE ( 'NONE', #284, #40, #64, .T. ) ;
#284 = VERTEX_POINT ( 'NONE', #251 ) ;
#285 = LINE ( 'NONE', #225, #273 ) ;
#286 = ORIENTED_EDGE ( 'NONE', *, *, #130, .F. ) ;
#287 = AXIS2_PLACEMENT_3D ( 'NONE', #54, #175, #151 ) ;
#288 = CONICAL_SURFACE ( 'NONE', #93, 2.499999999999999556, 0.3450620389298191815 ) ;
#289 = VERTEX_POINT ( 'NONE', #62 ) ;
#290 =( NAMED_UNIT ( * ) SI_UNIT ( $, .STERADIAN. ) SOLID_ANGLE_UNIT ( ) );
#291 = SURFACE_STYLE_FILL_AREA ( #208 ) ;
#292 = ADVANCED_FACE ( 'NONE', ( #14 ), #165, .F. ) ;
#293 =( LENGTH_UNIT ( ) NAMED_UNIT ( * ) SI_UNIT ( .MILLI., .METRE. ) );
#294 = DIRECTION ( 'NONE',  ( -3.491481338843133355E-15, 1.224646799147353207E-16, -1.000000000000000000 ) ) ;
#295 =( NAMED_UNIT ( * ) SI_UNIT ( $, .STERADIAN. ) SOLID_ANGLE_UNIT ( ) );
#296 = AXIS2_PLACEMENT_3D ( 'NONE', #240, #9, #213 ) ;
#297 = DIRECTION ( 'NONE',  ( -2.486899575160350966E-14, -1.000000000000000000, 0.000000000000000000 ) ) ;
#298 = EDGE_CURVE ( 'NONE', #233, #279, #27, .T. ) ;
#299 = CYLINDRICAL_SURFACE ( 'NONE', #254, 2.999999999999996447 ) ;
#300 = CARTESIAN_POINT ( 'NONE',  ( 1.990144363140586139E-13, -6.980486755139912911E-15, 57.00000000000000000 ) ) ;
#301 = EDGE_CURVE ( 'NONE', #203, #137, #241, .T. ) ;
#302 = LINE ( 'NONE', #170, #304 ) ;
#303 =( LENGTH_UNIT ( ) NAMED_UNIT ( * ) SI_UNIT ( .MILLI., .METRE. ) );
#304 = VECTOR ( 'NONE', #332, 1000.000000000000000 ) ;
#305 =( GEOMETRIC_REPRESENTATION_CONTEXT ( 3 ) GLOBAL_UNCERTAINTY_ASSIGNED_CONTEXT ( ( #220 ) ) GLOBAL_UNIT_ASSIGNED_CONTEXT ( ( #336, #177, #109 ) ) REPRESENTATION_CONTEXT ( 'NONE', 'WORKASPACE' ) );
#306 = ORIENTED_EDGE ( 'NONE', *, *, #152, .F. ) ;
#307 = AXIS2_PLACEMENT_3D ( 'NONE', #88, #163, #35 ) ;
#308 = ORIENTED_EDGE ( 'NONE', *, *, #70, .T. ) ;
#309 = PLANE ( 'NONE',  #287 ) ;
#310 = CARTESIAN_POINT ( 'NONE',  ( 1.969195475107527465E-13, -6.907007947191072769E-15, 56.40000000000000568 ) ) ;
#311 = MANIFOLD_SOLID_BREP ( 'Corps-Déplacer/Copier1[2]', #325 ) ;
#312 = CIRCLE ( 'NONE', #296, 2.499999999999997780 ) ;
#313 = ORIENTED_EDGE ( 'NONE', *, *, #298, .T. ) ;
#314 = ORIENTED_EDGE ( 'NONE', *, *, #247, .T. ) ;
#315 = PRESENTATION_STYLE_ASSIGNMENT (( #264 ) ) ;
#316 = LINE ( 'NONE', #55, #234 ) ;
#317 = CARTESIAN_POINT ( 'NONE',  ( 1.982976465481754853E-13, -2.400000000000008793, 57.00000000000000000 ) ) ;
#318 = ORIENTED_EDGE ( 'NONE', *, *, #97, .T. ) ;
#319 = AXIS2_PLACEMENT_3D ( 'NONE', #328, #12, #120 ) ;
#320 = CIRCLE ( 'NONE', #129, 2.999999999999996447 ) ;
#321 = EDGE_LOOP ( 'NONE', ( #245, #313 ) ) ;
#322 = ADVANCED_FACE ( 'NONE', ( #215 ), #299, .T. ) ;
#323 = ORIENTED_EDGE ( 'NONE', *, *, #34, .F. ) ;
#324 = SURFACE_STYLE_FILL_AREA ( #10 ) ;
#325 = CLOSED_SHELL ( 'NONE', ( #194, #156, #94, #292 ) ) ;
#326 = CARTESIAN_POINT ( 'NONE',  ( 1.230773259921010218E-13, -2.999999999999995559, 13.89104270854589096 ) ) ;
#327 = AXIS2_PLACEMENT_3D ( 'NONE', #300, #74, #138 ) ;
#328 = CARTESIAN_POINT ( 'NONE',  ( 4.850031639396095566E-14, -1.701162098983990575E-15, 13.89104270854589096 ) ) ;
#329 = DIRECTION ( 'NONE',  ( 1.000000000000000000, 0.000000000000000000, -3.491481338843133355E-15 ) ) ;
#330 = DIRECTION ( 'NONE',  ( -2.468850131082268499E-15, 0.7071067811865465735, -0.7071067811865483499 ) ) ;
#331 = ADVANCED_FACE ( 'NONE', ( #275 ), #288, .T. ) ;
#332 = DIRECTION ( 'NONE',  ( -3.491481338843133355E-15, 1.224646799147353207E-16, -1.000000000000000000 ) ) ;
#333 = EDGE_LOOP ( 'NONE', ( #323, #160, #261, #204 ) ) ;
#334 = AXIS2_PLACEMENT_3D ( 'NONE', #161, #83, #44 ) ;
#335 =( NAMED_UNIT ( * ) PLANE_ANGLE_UNIT ( ) SI_UNIT ( $, .RADIAN. ) );
#336 =( LENGTH_UNIT ( ) NAMED_UNIT ( * ) SI_UNIT ( .MILLI., .METRE. ) );
#337 = PRODUCT_DEFINITION_SHAPE ( 'NONE', 'NONE',  #209 ) ;
#338 = ORIENTED_EDGE ( 'NONE', *, *, #298, .F. ) ;
#339 = ADVANCED_FACE ( 'NONE', ( #235 ), #119, .T. ) ;
#340 = CARTESIAN_POINT ( 'NONE',  ( 1.969195475107527465E-13, 2.999999999999989786, 56.40000000000000568 ) ) ;
#341 = CIRCLE ( 'NONE', #183, 2.499999999999999556 ) ;
#342 = AXIS2_PLACEMENT_3D ( 'NONE', #37, #126, #218 ) ;
#343 = ORIENTED_EDGE ( 'NONE', *, *, #141, .F. ) ;
ENDSEC;
END-ISO-10303-21;
