ISO-10303-21;
HEADER;
FILE_DESCRIPTION (( 'STEP AP214' ),
    '1' );
FILE_NAME ('57002.step',
    '2024-04-04T09:56:06',
    ( '' ),
    ( '' ),
    'SwSTEP 2.0',
    'SolidWorks 2022',
    '' );
FILE_SCHEMA (( 'AUTOMOTIVE_DESIGN' ));
ENDSEC;

DATA;
#1 = DIRECTION ( 'NONE',  ( 1.000000000000000000, 0.000000000000000000, -3.491481338843133355E-15 ) ) ;
#2 = CARTESIAN_POINT ( 'NONE',  ( -3.949999999999928235, 4.837354856632043085E-16, 20.00000000000001421 ) ) ;
#3 = CLOSED_SHELL ( 'NONE', ( #163, #310, #190, #342, #95, #192, #288, #74 ) ) ;
#4 = DIRECTION ( 'NONE',  ( -3.491481338843133355E-15, 0.000000000000000000, -1.000000000000000000 ) ) ;
#5 = ORIENTED_EDGE ( 'NONE', *, *, #124, .F. ) ;
#6 = EDGE_CURVE ( 'NONE', #290, #236, #49, .T. ) ;
#7 = DIRECTION ( 'NONE',  ( -3.491481338843133355E-15, 1.224646799147351975E-16, -1.000000000000000000 ) ) ;
#8 = ORIENTED_EDGE ( 'NONE', *, *, #271, .F. ) ;
#9 = ADVANCED_FACE ( 'NONE', ( #173 ), #196, .T. ) ;
#10 = DIRECTION ( 'NONE',  ( 3.491481338843133355E-15, -1.224646799147353207E-16, 1.000000000000000000 ) ) ;
#11 = DIRECTION ( 'NONE',  ( -1.865174681370262672E-14, -1.000000000000000000, 0.000000000000000000 ) ) ;
#12 = CARTESIAN_POINT ( 'NONE',  ( 6.982962677686266711E-14, -2.449293598294706513E-15, 20.00000000000000000 ) ) ;
#13 = FILL_AREA_STYLE ('',( #151 ) ) ;
#14 = MANIFOLD_SOLID_BREP ( 'Corps-Déplacer/Copier1[1]', #3 ) ;
#15 = VECTOR ( 'NONE', #41, 1000.000000000000000 ) ;
#16 = VERTEX_POINT ( 'NONE', #141 ) ;
#17 = DIRECTION ( 'NONE',  ( 3.491481338843133355E-15, -0.000000000000000000, 1.000000000000000000 ) ) ;
#18 = ORIENTED_EDGE ( 'NONE', *, *, #124, .T. ) ;
#19 = VERTEX_POINT ( 'NONE', #107 ) ;
#20 = PRESENTATION_STYLE_ASSIGNMENT (( #152 ) ) ;
#21 = DIRECTION ( 'NONE',  ( 4.275831445896958607E-31, 1.000000000000000000, 1.224646799147353207E-16 ) ) ;
#22 = ORIENTED_EDGE ( 'NONE', *, *, #303, .F. ) ;
#23 = VECTOR ( 'NONE', #178, 1000.000000000000000 ) ;
#24 = ADVANCED_BREP_SHAPE_REPRESENTATION ( '57002', ( #14, #243, #105 ), #264 ) ;
#25 = CARTESIAN_POINT ( 'NONE',  ( 2.171701392760428568E-13, 3.999999999999992450, 62.19999999999998863 ) ) ;
#26 = DIRECTION ( 'NONE',  ( 1.000000000000000000, 0.000000000000000000, -3.513364001978345245E-15 ) ) ;
#27 = CARTESIAN_POINT ( 'NONE',  ( 6.982962677686266711E-14, -2.449293598294706513E-15, 20.00000000000000000 ) ) ;
#28 = PRODUCT_RELATED_PRODUCT_CATEGORY ( 'part', '', ( #56 ) ) ;
#29 = CARTESIAN_POINT ( 'NONE',  ( 4.898587196589396065E-16, -4.000000000000000000, -4.898587196589429592E-16 ) ) ;
#30 = ORIENTED_EDGE ( 'NONE', *, *, #271, .T. ) ;
#31 = APPLICATION_PROTOCOL_DEFINITION ( 'draft international standard', 'automotive_design', 1998, #106 ) ;
#32 = AXIS2_PLACEMENT_3D ( 'NONE', #153, #10, #302 ) ;
#33 = VERTEX_POINT ( 'NONE', #45 ) ;
#34 = CARTESIAN_POINT ( 'NONE',  ( 2.171701392760428568E-13, -7.617303090696535366E-15, 62.19999999999998863 ) ) ;
#35 = CYLINDRICAL_SURFACE ( 'NONE', #287, 4.000000000000000000 ) ;
#36 = PLANE ( 'NONE',  #229 ) ;
#37 = CARTESIAN_POINT ( 'NONE',  ( 1.442325817290327257E-13, -4.000000000000000000, 20.13910427085458466 ) ) ;
#38 = CIRCLE ( 'NONE', #147, 3.950000000000000178 ) ;
#39 = VECTOR ( 'NONE', #64, 1000.000000000000000 ) ;
#40 = ORIENTED_EDGE ( 'NONE', *, *, #224, .T. ) ;
#41 = DIRECTION ( 'NONE',  ( 3.285674118869262605E-15, -0.3382550599108816169, 0.9410544694355826856 ) ) ;
#42 = ORIENTED_EDGE ( 'NONE', *, *, #206, .F. ) ;
#43 = AXIS2_PLACEMENT_3D ( 'NONE', #12, #225, #132 ) ;
#44 = VECTOR ( 'NONE', #162, 1000.000000000000000 ) ;
#45 = CARTESIAN_POINT ( 'NONE',  ( 2.185667318115801354E-13, 3.199999999999985967, 63.00000000000000000 ) ) ;
#46 = APPLICATION_CONTEXT ( 'automotive_design' ) ;
#47 = ORIENTED_EDGE ( 'NONE', *, *, #48, .T. ) ;
#48 = EDGE_CURVE ( 'NONE', #19, #308, #38, .T. ) ;
#49 = CIRCLE ( 'NONE', #248, 4.000000000000000000 ) ;
#50 = ORIENTED_EDGE ( 'NONE', *, *, #103, .T. ) ;
#51 = CARTESIAN_POINT ( 'NONE',  ( 6.982962677686266711E-14, 0.000000000000000000, 20.00000000000000000 ) ) ;
#52 = CARTESIAN_POINT ( 'NONE',  ( 7.031530674270482704E-14, -2.466328958299685827E-15, 20.13910427085458466 ) ) ;
#53 = AXIS2_PLACEMENT_3D ( 'NONE', #51, #157, #262 ) ;
#54 = EDGE_CURVE ( 'NONE', #33, #171, #104, .T. ) ;
#55 = FACE_OUTER_BOUND ( 'NONE', #119, .T. ) ;
#56 = PRODUCT ( '57002', '57002', '', ( #234 ) ) ;
#57 = DIRECTION ( 'NONE',  ( -3.491481338843133355E-15, 1.224646799147353207E-16, -1.000000000000000000 ) ) ;
#58 = EDGE_LOOP ( 'NONE', ( #218, #154 ) ) ;
#59 = CYLINDRICAL_SURFACE ( 'NONE', #309, 4.000000000000000000 ) ;
#60 = CARTESIAN_POINT ( 'NONE',  ( 0.000000000000000000, 0.000000000000000000, 0.000000000000000000 ) ) ;
#61 = FACE_OUTER_BOUND ( 'NONE', #328, .T. ) ;
#62 = ORIENTED_EDGE ( 'NONE', *, *, #292, .F. ) ;
#63 = COLOUR_RGB ( '',1.000000000000000000, 1.000000000000000000, 1.000000000000000000 ) ;
#64 = DIRECTION ( 'NONE',  ( -3.491481338843133355E-15, 1.224646799147353207E-16, -1.000000000000000000 ) ) ;
#65 = EDGE_LOOP ( 'NONE', ( #42, #187, #230, #22 ) ) ;
#66 = CARTESIAN_POINT ( 'NONE',  ( 6.982962677686266711E-14, -2.449293598294706513E-15, 20.00000000000000000 ) ) ;
#67 = CARTESIAN_POINT ( 'NONE',  ( 6.982962677686266711E-14, -3.950000000000002842, 20.00000000000000000 ) ) ;
#68 = DIRECTION ( 'NONE',  ( -3.491481338843133355E-15, 1.224646799147351975E-16, -1.000000000000000000 ) ) ;
#69 = SURFACE_STYLE_USAGE ( .BOTH. , #297 ) ;
#70 = DIRECTION ( 'NONE',  ( 3.491481338843133355E-15, -0.000000000000000000, 1.000000000000000000 ) ) ;
#71 = CONICAL_SURFACE ( 'NONE', #102, 4.000000000000000000, 0.7853981633974467247 ) ;
#72 = DIRECTION ( 'NONE',  ( -3.491481338843133355E-15, 1.224646799147351975E-16, -1.000000000000000000 ) ) ;
#73 = ORIENTED_EDGE ( 'NONE', *, *, #307, .T. ) ;
#74 = ADVANCED_FACE ( 'NONE', ( #83 ), #71, .T. ) ;
#75 = CYLINDRICAL_SURFACE ( 'NONE', #233, 3.949999999999998845 ) ;
#76 = DIRECTION ( 'NONE',  ( 1.000000000000000000, 0.000000000000000000, -3.491481338843133355E-15 ) ) ;
#77 = ORIENTED_EDGE ( 'NONE', *, *, #220, .T. ) ;
#78 = VERTEX_POINT ( 'NONE', #249 ) ;
#79 = CONICAL_SURFACE ( 'NONE', #138, 3.950000000000000178, 0.3450620389298185708 ) ;
#80 = CARTESIAN_POINT ( 'NONE',  ( 3.950000000000069011, 0.000000000000000000, 19.99999999999998579 ) ) ;
#81 =( NAMED_UNIT ( * ) SI_UNIT ( $, .STERADIAN. ) SOLID_ANGLE_UNIT ( ) );
#82 = CONICAL_SURFACE ( 'NONE', #112, 4.000000000000000000, 0.7853981633974467247 ) ;
#83 = FACE_OUTER_BOUND ( 'NONE', #258, .T. ) ;
#84 = ORIENTED_EDGE ( 'NONE', *, *, #303, .T. ) ;
#85 = VECTOR ( 'NONE', #57, 1000.000000000000000 ) ;
#86 = LINE ( 'NONE', #67, #15 ) ;
#87 = PLANE ( 'NONE',  #316 ) ;
#88 = DIRECTION ( 'NONE',  ( 0.000000000000000000, 1.000000000000000000, 0.000000000000000000 ) ) ;
#89 = DIRECTION ( 'NONE',  ( -3.491481338843133355E-15, 1.224646799147353207E-16, -1.000000000000000000 ) ) ;
#90 = EDGE_LOOP ( 'NONE', ( #146, #30, #329, #5 ) ) ;
#91 = DIRECTION ( 'NONE',  ( 4.275831445896958607E-31, 1.000000000000000000, 1.224646799147353207E-16 ) ) ;
#92 = CIRCLE ( 'NONE', #312, 3.950000000000000178 ) ;
#93 = PRESENTATION_LAYER_ASSIGNMENT (  '', '', ( #296 ) ) ;
#94 = CARTESIAN_POINT ( 'NONE',  ( 4.596518804339232823E-31, 3.950000000000000178, 1.316495309083405357E-16 ) ) ;
#95 = ADVANCED_FACE ( 'NONE', ( #99 ), #279, .T. ) ;
#96 = CARTESIAN_POINT ( 'NONE',  ( 7.031530674270482704E-14, 3.999999999999994671, 20.13910427085458466 ) ) ;
#97 =( GEOMETRIC_REPRESENTATION_CONTEXT ( 3 ) GLOBAL_UNCERTAINTY_ASSIGNED_CONTEXT ( ( #199 ) ) GLOBAL_UNIT_ASSIGNED_CONTEXT ( ( #211, #160, #181 ) ) REPRESENTATION_CONTEXT ( 'NONE', 'WORKASPACE' ) );
#98 = ORIENTED_EDGE ( 'NONE', *, *, #307, .F. ) ;
#99 = FACE_OUTER_BOUND ( 'NONE', #58, .T. ) ;
#100 = ADVANCED_FACE ( 'NONE', ( #252 ), #75, .T. ) ;
#101 = CARTESIAN_POINT ( 'NONE',  ( 1.442325817290327257E-13, -4.000000000000007994, 62.19999999999998863 ) ) ;
#102 = AXIS2_PLACEMENT_3D ( 'NONE', #34, #72, #150 ) ;
#103 = EDGE_CURVE ( 'NONE', #19, #331, #198, .T. ) ;
#104 = CIRCLE ( 'NONE', #155, 3.199999999999993516 ) ;
#105 = AXIS2_PLACEMENT_3D ( 'NONE', #210, #240, #166 ) ;
#106 = APPLICATION_CONTEXT ( 'automotive_design' ) ;
#107 = CARTESIAN_POINT ( 'NONE',  ( 7.055926386244481992E-14, 3.949999999999997957, 20.00000000000000000 ) ) ;
#108 = EDGE_CURVE ( 'NONE', #308, #19, #92, .T. ) ;
#109 = DIRECTION ( 'NONE',  ( -3.491481338843133355E-15, 1.224646799147351975E-16, -1.000000000000000000 ) ) ;
#110 = ORIENTED_EDGE ( 'NONE', *, *, #330, .F. ) ;
#111 = DIRECTION ( 'NONE',  ( 4.275831445896958607E-31, 1.000000000000000000, 1.224646799147353207E-16 ) ) ;
#112 = AXIS2_PLACEMENT_3D ( 'NONE', #186, #7, #88 ) ;
#113 = PRODUCT_DEFINITION_FORMATION_WITH_SPECIFIED_SOURCE ( 'ANY', '', #56, .NOT_KNOWN. ) ;
#114 = DIRECTION ( 'NONE',  ( -1.000000000000000000, 0.000000000000000000, 3.491481338843133355E-15 ) ) ;
#115 = CARTESIAN_POINT ( 'NONE',  ( 2.199633243471174140E-13, -7.715274834628325378E-15, 63.00000000000000000 ) ) ;
#116 = EDGE_LOOP ( 'NONE', ( #332, #148, #255, #84 ) ) ;
#117 = CARTESIAN_POINT ( 'NONE',  ( 2.199633243471174140E-13, -7.715274834628325378E-15, 63.00000000000000000 ) ) ;
#118 = FACE_OUTER_BOUND ( 'NONE', #65, .T. ) ;
#119 = EDGE_LOOP ( 'NONE', ( #334, #50, #281, #202 ) ) ;
#120 = DIRECTION ( 'NONE',  ( 3.491481338843133355E-15, -0.000000000000000000, 1.000000000000000000 ) ) ;
#121 = EDGE_LOOP ( 'NONE', ( #205, #18 ) ) ;
#122 = ORIENTED_EDGE ( 'NONE', *, *, #254, .F. ) ;
#123 = DIRECTION ( 'NONE',  ( 1.000000000000000000, 0.000000000000000000, -3.513364001978344456E-15 ) ) ;
#124 = EDGE_CURVE ( 'NONE', #276, #323, #207, .T. ) ;
#125 =( NAMED_UNIT ( * ) PLANE_ANGLE_UNIT ( ) SI_UNIT ( $, .RADIAN. ) );
#126 = AXIS2_PLACEMENT_3D ( 'NONE', #298, #70, #123 ) ;
#127 = COLOUR_RGB ( '',1.000000000000000000, 1.000000000000000000, 1.000000000000000000 ) ;
#128 = ORIENTED_EDGE ( 'NONE', *, *, #305, .F. ) ;
#129 = FACE_OUTER_BOUND ( 'NONE', #116, .T. ) ;
#130 = ORIENTED_EDGE ( 'NONE', *, *, #108, .T. ) ;
#131 = ORIENTED_EDGE ( 'NONE', *, *, #254, .T. ) ;
#132 = DIRECTION ( 'NONE',  ( 0.000000000000000000, -1.000000000000000000, 0.000000000000000000 ) ) ;
#133 =( LENGTH_UNIT ( ) NAMED_UNIT ( * ) SI_UNIT ( .MILLI., .METRE. ) );
#134 = CIRCLE ( 'NONE', #315, 3.950000000000000178 ) ;
#135 = AXIS2_PLACEMENT_3D ( 'NONE', #94, #120, #1 ) ;
#136 =( NAMED_UNIT ( * ) PLANE_ANGLE_UNIT ( ) SI_UNIT ( $, .RADIAN. ) );
#137 = DIRECTION ( 'NONE',  ( 3.491481338843133355E-15, -1.224646799147353207E-16, 1.000000000000000000 ) ) ;
#138 = AXIS2_PLACEMENT_3D ( 'NONE', #27, #137, #341 ) ;
#139 = DIRECTION ( 'NONE',  ( 3.491481338843133355E-15, -0.000000000000000000, 1.000000000000000000 ) ) ;
#140 = LINE ( 'NONE', #29, #85 ) ;
#141 = CARTESIAN_POINT ( 'NONE',  ( -3.950000000000000178, 4.837354856632088445E-16, 1.379135128843037833E-14 ) ) ;
#142 = CARTESIAN_POINT ( 'NONE',  ( 1.710332578358783443E-30, 4.000000000000000000, 4.898587196589412829E-16 ) ) ;
#143 = COLOUR_RGB ( '',1.000000000000000000, 1.000000000000000000, 1.000000000000000000 ) ;
#144 = DIRECTION ( 'NONE',  ( 0.000000000000000000, 1.000000000000000000, 0.000000000000000000 ) ) ;
#145 = PLANE ( 'NONE',  #135 ) ;
#146 = ORIENTED_EDGE ( 'NONE', *, *, #220, .F. ) ;
#147 = AXIS2_PLACEMENT_3D ( 'NONE', #66, #189, #275 ) ;
#148 = ORIENTED_EDGE ( 'NONE', *, *, #108, .F. ) ;
#149 = AXIS2_PLACEMENT_3D ( 'NONE', #52, #159, #266 ) ;
#150 = DIRECTION ( 'NONE',  ( 0.000000000000000000, 1.000000000000000000, 0.000000000000000000 ) ) ;
#151 = FILL_AREA_STYLE_COLOUR ( '', #143 ) ;
#152 = SURFACE_STYLE_USAGE ( .BOTH. , #284 ) ;
#153 = CARTESIAN_POINT ( 'NONE',  ( 2.199633243471174140E-13, -7.715274834628325378E-15, 63.00000000000000000 ) ) ;
#154 = ORIENTED_EDGE ( 'NONE', *, *, #170, .T. ) ;
#155 = AXIS2_PLACEMENT_3D ( 'NONE', #117, #212, #313 ) ;
#156 = EDGE_CURVE ( 'NONE', #171, #290, #231, .T. ) ;
#157 = DIRECTION ( 'NONE',  ( 3.491481338843133355E-15, -0.000000000000000000, 1.000000000000000000 ) ) ;
#158 = UNCERTAINTY_MEASURE_WITH_UNIT (LENGTH_MEASURE( 1.000000000000000082E-05 ), #251, 'distance_accuracy_value', 'NONE');
#159 = DIRECTION ( 'NONE',  ( -3.491481338843133355E-15, 1.224646799147353207E-16, -1.000000000000000000 ) ) ;
#160 =( NAMED_UNIT ( * ) PLANE_ANGLE_UNIT ( ) SI_UNIT ( $, .RADIAN. ) );
#161 = DIRECTION ( 'NONE',  ( 3.327098416510788793E-15, 0.3382550599108814504, 0.9410544694355826856 ) ) ;
#162 = DIRECTION ( 'NONE',  ( -2.468850131082269288E-15, 0.7071067811865465735, -0.7071067811865485719 ) ) ;
#163 = ADVANCED_FACE ( 'NONE', ( #242 ), #82, .T. ) ;
#164 = LINE ( 'NONE', #2, #200 ) ;
#165 = CARTESIAN_POINT ( 'NONE',  ( 7.031530674270482704E-14, -2.466328958299685827E-15, 20.13910427085458466 ) ) ;
#166 = DIRECTION ( 'NONE',  ( 1.000000000000000000, 0.000000000000000000, 0.000000000000000000 ) ) ;
#167 = FILL_AREA_STYLE_COLOUR ( '', #63 ) ;
#168 = DIRECTION ( 'NONE',  ( 1.953992523340275511E-14, -1.000000000000000000, 0.000000000000000000 ) ) ;
#169 = LINE ( 'NONE', #142, #39 ) ;
#170 = EDGE_CURVE ( 'NONE', #171, #33, #340, .T. ) ;
#171 = VERTEX_POINT ( 'NONE', #268 ) ;
#172 = AXIS2_PLACEMENT_3D ( 'NONE', #314, #139, #26 ) ;
#173 = FACE_OUTER_BOUND ( 'NONE', #306, .T. ) ;
#174 = VERTEX_POINT ( 'NONE', #37 ) ;
#175 = PRODUCT_DEFINITION_CONTEXT ( 'detailed design', #46, 'design' ) ;
#176 = CARTESIAN_POINT ( 'NONE',  ( 6.982962677686266711E-14, 0.000000000000000000, 20.00000000000000000 ) ) ;
#177 = ORIENTED_EDGE ( 'NONE', *, *, #156, .T. ) ;
#178 = DIRECTION ( 'NONE',  ( 3.491481338843133355E-15, -0.000000000000000000, 1.000000000000000000 ) ) ;
#179 = FILL_AREA_STYLE ('',( #261 ) ) ;
#180 = VECTOR ( 'NONE', #161, 999.9999999999998863 ) ;
#181 =( NAMED_UNIT ( * ) SI_UNIT ( $, .STERADIAN. ) SOLID_ANGLE_UNIT ( ) );
#182 = EDGE_CURVE ( 'NONE', #331, #174, #238, .T. ) ;
#183 = DIRECTION ( 'NONE',  ( 0.000000000000000000, -1.000000000000000000, 0.000000000000000000 ) ) ;
#184 = CIRCLE ( 'NONE', #278, 3.950000000000000178 ) ;
#185 = MECHANICAL_DESIGN_GEOMETRIC_PRESENTATION_REPRESENTATION (  '', ( #272 ), #97 ) ;
#186 = CARTESIAN_POINT ( 'NONE',  ( 2.171701392760428568E-13, -7.617303090696535366E-15, 62.19999999999998863 ) ) ;
#187 = ORIENTED_EDGE ( 'NONE', *, *, #6, .T. ) ;
#188 = ORIENTED_EDGE ( 'NONE', *, *, #156, .F. ) ;
#189 = DIRECTION ( 'NONE',  ( -3.491481338843133355E-15, 1.224646799147353207E-16, -1.000000000000000000 ) ) ;
#190 = ADVANCED_FACE ( 'NONE', ( #61 ), #35, .T. ) ;
#191 = DIRECTION ( 'NONE',  ( -3.491481338843133355E-15, 1.224646799147353207E-16, -1.000000000000000000 ) ) ;
#192 = ADVANCED_FACE ( 'NONE', ( #118 ), #59, .T. ) ;
#193 = PRESENTATION_LAYER_ASSIGNMENT (  '', '', ( #272 ) ) ;
#194 = CIRCLE ( 'NONE', #149, 3.999999999999997335 ) ;
#195 = CARTESIAN_POINT ( 'NONE',  ( 7.031336226252587220E-14, 3.949999999999997957, 20.00000000000000000 ) ) ;
#196 = CYLINDRICAL_SURFACE ( 'NONE', #126, 3.949999999999998845 ) ;
#197 = AXIS2_PLACEMENT_3D ( 'NONE', #165, #191, #144 ) ;
#198 = LINE ( 'NONE', #195, #180 ) ;
#199 = UNCERTAINTY_MEASURE_WITH_UNIT (LENGTH_MEASURE( 1.000000000000000082E-05 ), #211, 'distance_accuracy_value', 'NONE');
#200 = VECTOR ( 'NONE', #317, 1000.000000000000000 ) ;
#201 = LINE ( 'NONE', #80, #23 ) ;
#202 = ORIENTED_EDGE ( 'NONE', *, *, #228, .F. ) ;
#203 = CARTESIAN_POINT ( 'NONE',  ( 6.982962677686266711E-14, -2.449293598294706513E-15, 20.00000000000000000 ) ) ;
#204 = ORIENTED_EDGE ( 'NONE', *, *, #224, .F. ) ;
#205 = ORIENTED_EDGE ( 'NONE', *, *, #305, .T. ) ;
#206 = EDGE_CURVE ( 'NONE', #290, #174, #140, .T. ) ;
#207 = CIRCLE ( 'NONE', #53, 3.949999999999997957 ) ;
#208 = LINE ( 'NONE', #25, #44 ) ;
#209 = DIRECTION ( 'NONE',  ( -3.491481338843133355E-15, 1.224646799147353207E-16, -1.000000000000000000 ) ) ;
#210 = CARTESIAN_POINT ( 'NONE',  ( 0.000000000000000000, 0.000000000000000000, 0.000000000000000000 ) ) ;
#211 =( LENGTH_UNIT ( ) NAMED_UNIT ( * ) SI_UNIT ( .MILLI., .METRE. ) );
#212 = DIRECTION ( 'NONE',  ( 3.491481338843133355E-15, -1.224646799147353207E-16, 1.000000000000000000 ) ) ;
#213 = DIRECTION ( 'NONE',  ( 3.491481338843133355E-15, -1.224646799147353207E-16, 1.000000000000000000 ) ) ;
#214 = CARTESIAN_POINT ( 'NONE',  ( 2.171701392760428568E-13, -7.617303090696535366E-15, 62.19999999999998863 ) ) ;
#215 = CARTESIAN_POINT ( 'NONE',  ( 0.000000000000000000, 0.000000000000000000, 0.000000000000000000 ) ) ;
#216 = CARTESIAN_POINT ( 'NONE',  ( 0.000000000000000000, 0.000000000000000000, 0.000000000000000000 ) ) ;
#217 = CARTESIAN_POINT ( 'NONE',  ( 1.437427230093738356E-13, 3.999999999999992450, 62.19999999999998863 ) ) ;
#218 = ORIENTED_EDGE ( 'NONE', *, *, #54, .T. ) ;
#219 = DIRECTION ( 'NONE',  ( 1.000000000000000000, 0.000000000000000000, -3.513364001978344456E-15 ) ) ;
#220 = EDGE_CURVE ( 'NONE', #16, #276, #164, .T. ) ;
#221 = AXIS2_PLACEMENT_3D ( 'NONE', #115, #213, #183 ) ;
#222 = CONICAL_SURFACE ( 'NONE', #43, 3.950000000000000178, 0.3450620389298185708 ) ;
#223 = SURFACE_STYLE_FILL_AREA ( #13 ) ;
#224 = EDGE_CURVE ( 'NONE', #236, #290, #291, .T. ) ;
#225 = DIRECTION ( 'NONE',  ( 3.491481338843133355E-15, -1.224646799147353207E-16, 1.000000000000000000 ) ) ;
#226 = UNCERTAINTY_MEASURE_WITH_UNIT (LENGTH_MEASURE( 1.000000000000000082E-05 ), #256, 'distance_accuracy_value', 'NONE');
#227 = ORIENTED_EDGE ( 'NONE', *, *, #6, .F. ) ;
#228 = EDGE_CURVE ( 'NONE', #308, #174, #86, .T. ) ;
#229 = AXIS2_PLACEMENT_3D ( 'NONE', #239, #4, #114 ) ;
#230 = ORIENTED_EDGE ( 'NONE', *, *, #330, .T. ) ;
#231 = LINE ( 'NONE', #337, #282 ) ;
#232 = SURFACE_SIDE_STYLE ('',( #223 ) ) ;
#233 = AXIS2_PLACEMENT_3D ( 'NONE', #176, #17, #219 ) ;
#234 = PRODUCT_CONTEXT ( 'NONE', #106, 'mechanical' ) ;
#235 = CARTESIAN_POINT ( 'NONE',  ( 3.950000000000068123, 0.000000000000000000, 19.99999999999998579 ) ) ;
#236 = VERTEX_POINT ( 'NONE', #217 ) ;
#237 = SHAPE_DEFINITION_REPRESENTATION ( #269, #24 ) ;
#238 = CIRCLE ( 'NONE', #197, 3.999999999999997335 ) ;
#239 = CARTESIAN_POINT ( 'NONE',  ( 6.982962677686266711E-14, 3.949999999999997957, 20.00000000000000000 ) ) ;
#240 = DIRECTION ( 'NONE',  ( 0.000000000000000000, 0.000000000000000000, 1.000000000000000000 ) ) ;
#241 = FILL_AREA_STYLE ('',( #167 ) ) ;
#242 = FACE_OUTER_BOUND ( 'NONE', #318, .T. ) ;
#243 = MANIFOLD_SOLID_BREP ( 'Corps-Déplacer/Copier1[2]', #300 ) ;
#244 =( NAMED_UNIT ( * ) SI_UNIT ( $, .STERADIAN. ) SOLID_ANGLE_UNIT ( ) );
#245 = EDGE_LOOP ( 'NONE', ( #122, #8 ) ) ;
#246 = CARTESIAN_POINT ( 'NONE',  ( 6.982962677686266711E-14, 3.949999999999997957, 20.00000000000000000 ) ) ;
#247 = ADVANCED_FACE ( 'NONE', ( #270 ), #36, .F. ) ;
#248 = AXIS2_PLACEMENT_3D ( 'NONE', #253, #68, #11 ) ;
#249 = CARTESIAN_POINT ( 'NONE',  ( 3.950000000000000178, 0.000000000000000000, -1.379135128843037675E-14 ) ) ;
#250 = ORIENTED_EDGE ( 'NONE', *, *, #54, .F. ) ;
#251 =( LENGTH_UNIT ( ) NAMED_UNIT ( * ) SI_UNIT ( .MILLI., .METRE. ) );
#252 = FACE_OUTER_BOUND ( 'NONE', #90, .T. ) ;
#253 = CARTESIAN_POINT ( 'NONE',  ( 2.171701392760428568E-13, -7.617303090696535366E-15, 62.19999999999998863 ) ) ;
#254 = EDGE_CURVE ( 'NONE', #78, #16, #184, .T. ) ;
#255 = ORIENTED_EDGE ( 'NONE', *, *, #228, .T. ) ;
#256 =( LENGTH_UNIT ( ) NAMED_UNIT ( * ) SI_UNIT ( .MILLI., .METRE. ) );
#257 = STYLED_ITEM ( 'NONE', ( #277 ), #243 ) ;
#258 = EDGE_LOOP ( 'NONE', ( #188, #250, #73, #227 ) ) ;
#259 = EDGE_LOOP ( 'NONE', ( #130, #47 ) ) ;
#260 = ORIENTED_EDGE ( 'NONE', *, *, #170, .F. ) ;
#261 = FILL_AREA_STYLE_COLOUR ( '', #127 ) ;
#262 = DIRECTION ( 'NONE',  ( 1.000000000000000000, 0.000000000000000000, -3.513364001978345245E-15 ) ) ;
#263 = AXIS2_PLACEMENT_3D ( 'NONE', #214, #109, #168 ) ;
#264 =( GEOMETRIC_REPRESENTATION_CONTEXT ( 3 ) GLOBAL_UNCERTAINTY_ASSIGNED_CONTEXT ( ( #327 ) ) GLOBAL_UNIT_ASSIGNED_CONTEXT ( ( #133, #125, #81 ) ) REPRESENTATION_CONTEXT ( 'NONE', 'WORKASPACE' ) );
#265 = PRESENTATION_LAYER_ASSIGNMENT (  '', '', ( #257 ) ) ;
#266 = DIRECTION ( 'NONE',  ( 0.000000000000000000, 1.000000000000000000, 0.000000000000000000 ) ) ;
#267 = MECHANICAL_DESIGN_GEOMETRIC_PRESENTATION_REPRESENTATION (  '', ( #296 ), #311 ) ;
#268 = CARTESIAN_POINT ( 'NONE',  ( 2.190076046592731668E-13, -3.200000000000001510, 63.00000000000000000 ) ) ;
#269 = PRODUCT_DEFINITION_SHAPE ( 'NONE', 'NONE',  #283 ) ;
#270 = FACE_OUTER_BOUND ( 'NONE', #121, .T. ) ;
#271 = EDGE_CURVE ( 'NONE', #16, #78, #134, .T. ) ;
#272 = STYLED_ITEM ( 'NONE', ( #339 ), #14 ) ;
#273 = DIRECTION ( 'NONE',  ( 3.491481338843133355E-15, -0.000000000000000000, 1.000000000000000000 ) ) ;
#274 =( NAMED_UNIT ( * ) PLANE_ANGLE_UNIT ( ) SI_UNIT ( $, .RADIAN. ) );
#275 = DIRECTION ( 'NONE',  ( 0.000000000000000000, 1.000000000000000000, 0.000000000000000000 ) ) ;
#276 = VERTEX_POINT ( 'NONE', #299 ) ;
#277 = PRESENTATION_STYLE_ASSIGNMENT (( #69 ) ) ;
#278 = AXIS2_PLACEMENT_3D ( 'NONE', #215, #320, #295 ) ;
#279 = PLANE ( 'NONE',  #32 ) ;
#280 = ORIENTED_EDGE ( 'NONE', *, *, #206, .T. ) ;
#281 = ORIENTED_EDGE ( 'NONE', *, *, #182, .T. ) ;
#282 = VECTOR ( 'NONE', #286, 1000.000000000000000 ) ;
#283 = PRODUCT_DEFINITION ( 'UNKNOWN', '', #113, #175 ) ;
#284 = SURFACE_SIDE_STYLE ('',( #336 ) ) ;
#285 = DIRECTION ( 'NONE',  ( 0.000000000000000000, 1.000000000000000000, 0.000000000000000000 ) ) ;
#286 = DIRECTION ( 'NONE',  ( -2.382254525458720625E-15, -0.7071067811865463515, -0.7071067811865487940 ) ) ;
#287 = AXIS2_PLACEMENT_3D ( 'NONE', #321, #89, #111 ) ;
#288 = ADVANCED_FACE ( 'NONE', ( #129 ), #222, .T. ) ;
#289 = CARTESIAN_POINT ( 'NONE',  ( 7.007246675978375339E-14, -3.950000000000002842, 20.00000000000000000 ) ) ;
#290 = VERTEX_POINT ( 'NONE', #101 ) ;
#291 = CIRCLE ( 'NONE', #263, 4.000000000000000000 ) ;
#292 = EDGE_CURVE ( 'NONE', #78, #323, #201, .T. ) ;
#293 =( NAMED_UNIT ( * ) SI_UNIT ( $, .STERADIAN. ) SOLID_ANGLE_UNIT ( ) );
#294 = SURFACE_STYLE_FILL_AREA ( #241 ) ;
#295 = DIRECTION ( 'NONE',  ( 1.000000000000000000, 0.000000000000000000, -3.491481338843133355E-15 ) ) ;
#296 = STYLED_ITEM ( 'NONE', ( #20 ), #24 ) ;
#297 = SURFACE_SIDE_STYLE ('',( #294 ) ) ;
#298 = CARTESIAN_POINT ( 'NONE',  ( 6.982962677686266711E-14, 0.000000000000000000, 20.00000000000000000 ) ) ;
#299 = CARTESIAN_POINT ( 'NONE',  ( -3.949999999999927347, 4.837354856632043085E-16, 20.00000000000001421 ) ) ;
#300 = CLOSED_SHELL ( 'NONE', ( #9, #100, #247, #338 ) ) ;
#301 = CIRCLE ( 'NONE', #172, 3.949999999999997957 ) ;
#302 = DIRECTION ( 'NONE',  ( -4.275831445896958607E-31, -1.000000000000000000, -1.224646799147353207E-16 ) ) ;
#303 = EDGE_CURVE ( 'NONE', #174, #331, #194, .T. ) ;
#304 = DIRECTION ( 'NONE',  ( -3.491481338843133355E-15, 1.224646799147353207E-16, -1.000000000000000000 ) ) ;
#305 = EDGE_CURVE ( 'NONE', #323, #276, #301, .T. ) ;
#306 = EDGE_LOOP ( 'NONE', ( #131, #77, #128, #62 ) ) ;
#307 = EDGE_CURVE ( 'NONE', #33, #236, #208, .T. ) ;
#308 = VERTEX_POINT ( 'NONE', #289 ) ;
#309 = AXIS2_PLACEMENT_3D ( 'NONE', #216, #322, #91 ) ;
#310 = ADVANCED_FACE ( 'NONE', ( #55 ), #79, .T. ) ;
#311 =( GEOMETRIC_REPRESENTATION_CONTEXT ( 3 ) GLOBAL_UNCERTAINTY_ASSIGNED_CONTEXT ( ( #226 ) ) GLOBAL_UNIT_ASSIGNED_CONTEXT ( ( #256, #136, #293 ) ) REPRESENTATION_CONTEXT ( 'NONE', 'WORKASPACE' ) );
#312 = AXIS2_PLACEMENT_3D ( 'NONE', #203, #209, #285 ) ;
#313 = DIRECTION ( 'NONE',  ( 0.000000000000000000, -1.000000000000000000, 0.000000000000000000 ) ) ;
#314 = CARTESIAN_POINT ( 'NONE',  ( 6.982962677686266711E-14, 0.000000000000000000, 20.00000000000000000 ) ) ;
#315 = AXIS2_PLACEMENT_3D ( 'NONE', #60, #273, #76 ) ;
#316 = AXIS2_PLACEMENT_3D ( 'NONE', #246, #304, #21 ) ;
#317 = DIRECTION ( 'NONE',  ( 3.491481338843133355E-15, -0.000000000000000000, 1.000000000000000000 ) ) ;
#318 = EDGE_LOOP ( 'NONE', ( #260, #177, #204, #98 ) ) ;
#319 = FACE_OUTER_BOUND ( 'NONE', #259, .T. ) ;
#320 = DIRECTION ( 'NONE',  ( 3.491481338843133355E-15, -0.000000000000000000, 1.000000000000000000 ) ) ;
#321 = CARTESIAN_POINT ( 'NONE',  ( 0.000000000000000000, 0.000000000000000000, 0.000000000000000000 ) ) ;
#322 = DIRECTION ( 'NONE',  ( -3.491481338843133355E-15, 1.224646799147353207E-16, -1.000000000000000000 ) ) ;
#323 = VERTEX_POINT ( 'NONE', #235 ) ;
#324 = FACE_OUTER_BOUND ( 'NONE', #245, .T. ) ;
#325 = MECHANICAL_DESIGN_GEOMETRIC_PRESENTATION_REPRESENTATION (  '', ( #257 ), #335 ) ;
#326 = ORIENTED_EDGE ( 'NONE', *, *, #182, .F. ) ;
#327 = UNCERTAINTY_MEASURE_WITH_UNIT (LENGTH_MEASURE( 1.000000000000000082E-05 ), #133, 'distance_accuracy_value', 'NONE');
#328 = EDGE_LOOP ( 'NONE', ( #40, #280, #326, #110 ) ) ;
#329 = ORIENTED_EDGE ( 'NONE', *, *, #292, .T. ) ;
#330 = EDGE_CURVE ( 'NONE', #236, #331, #169, .T. ) ;
#331 = VERTEX_POINT ( 'NONE', #96 ) ;
#332 = ORIENTED_EDGE ( 'NONE', *, *, #103, .F. ) ;
#333 = SURFACE_STYLE_USAGE ( .BOTH. , #232 ) ;
#334 = ORIENTED_EDGE ( 'NONE', *, *, #48, .F. ) ;
#335 =( GEOMETRIC_REPRESENTATION_CONTEXT ( 3 ) GLOBAL_UNCERTAINTY_ASSIGNED_CONTEXT ( ( #158 ) ) GLOBAL_UNIT_ASSIGNED_CONTEXT ( ( #251, #274, #244 ) ) REPRESENTATION_CONTEXT ( 'NONE', 'WORKASPACE' ) );
#336 = SURFACE_STYLE_FILL_AREA ( #179 ) ;
#337 = CARTESIAN_POINT ( 'NONE',  ( 2.176599979957017974E-13, -4.000000000000007994, 62.19999999999998863 ) ) ;
#338 = ADVANCED_FACE ( 'NONE', ( #324 ), #145, .F. ) ;
#339 = PRESENTATION_STYLE_ASSIGNMENT (( #333 ) ) ;
#340 = CIRCLE ( 'NONE', #221, 3.199999999999993516 ) ;
#341 = DIRECTION ( 'NONE',  ( 0.000000000000000000, -1.000000000000000000, 0.000000000000000000 ) ) ;
#342 = ADVANCED_FACE ( 'NONE', ( #319 ), #87, .T. ) ;
#343 = APPLICATION_PROTOCOL_DEFINITION ( 'draft international standard', 'automotive_design', 1998, #46 ) ;
ENDSEC;
END-ISO-10303-21;
