ISO-10303-21;
HEADER;
FILE_DESCRIPTION (( 'STEP AP214' ),
    '1' );
FILE_NAME ('57001.step',
    '2024-04-04T09:56:06',
    ( '' ),
    ( '' ),
    'SwSTEP 2.0',
    'SolidWorks 2022',
    '' );
FILE_SCHEMA (( 'AUTOMOTIVE_DESIGN' ));
ENDSEC;

DATA;
#1 = VECTOR ( 'NONE', #158, 1000.000000000000000 ) ;
#2 =( GEOMETRIC_REPRESENTATION_CONTEXT ( 3 ) GLOBAL_UNCERTAINTY_ASSIGNED_CONTEXT ( ( #23 ) ) GLOBAL_UNIT_ASSIGNED_CONTEXT ( ( #292, #134, #157 ) ) REPRESENTATION_CONTEXT ( 'NONE', 'WORKASPACE' ) );
#3 = LINE ( 'NONE', #137, #316 ) ;
#4 = SURFACE_STYLE_FILL_AREA ( #182 ) ;
#5 = ADVANCED_FACE ( 'NONE', ( #217 ), #207, .T. ) ;
#6 = DIRECTION ( 'NONE',  ( -3.491481338843133355E-15, 1.224646799147353454E-16, -1.000000000000000000 ) ) ;
#7 = ORIENTED_EDGE ( 'NONE', *, *, #84, .T. ) ;
#8 = LINE ( 'NONE', #239, #1 ) ;
#9 = ORIENTED_EDGE ( 'NONE', *, *, #55, .F. ) ;
#10 = ORIENTED_EDGE ( 'NONE', *, *, #285, .T. ) ;
#11 = EDGE_LOOP ( 'NONE', ( #9, #39, #273, #298 ) ) ;
#12 = CARTESIAN_POINT ( 'NONE',  ( 2.793185071074506684E-14, 0.000000000000000000, 8.000000000000000000 ) ) ;
#13 = ADVANCED_FACE ( 'NONE', ( #21 ), #104, .F. ) ;
#14 = CARTESIAN_POINT ( 'NONE',  ( 1.800000000000026690, 0.000000000000000000, 7.999999999999992895 ) ) ;
#15 = CIRCLE ( 'NONE', #40, 1.599999999999983435 ) ;
#16 = CYLINDRICAL_SURFACE ( 'NONE', #180, 1.799999999999999156 ) ;
#17 = STYLED_ITEM ( 'NONE', ( #211 ), #227 ) ;
#18 = FILL_AREA_STYLE_COLOUR ( '', #224 ) ;
#19 = CIRCLE ( 'NONE', #128, 1.599999999999983435 ) ;
#20 = FACE_OUTER_BOUND ( 'NONE', #63, .T. ) ;
#21 = FACE_OUTER_BOUND ( 'NONE', #301, .T. ) ;
#22 = DIRECTION ( 'NONE',  ( 3.491481338843133355E-15, -1.224646799147353454E-16, 1.000000000000000000 ) ) ;
#23 = UNCERTAINTY_MEASURE_WITH_UNIT (LENGTH_MEASURE( 1.000000000000000082E-05 ), #292, 'distance_accuracy_value', 'NONE');
#24 = VECTOR ( 'NONE', #148, 1000.000000000000000 ) ;
#25 = EDGE_CURVE ( 'NONE', #64, #41, #81, .T. ) ;
#26 = PRODUCT_CONTEXT ( 'NONE', #99, 'mechanical' ) ;
#27 = DIRECTION ( 'NONE',  ( -3.491481338843133355E-15, 1.224646799147353454E-16, -1.000000000000000000 ) ) ;
#28 = VECTOR ( 'NONE', #152, 1000.000000000000000 ) ;
#29 = DIRECTION ( 'NONE',  ( -3.491481338843133355E-15, 1.224646799147353454E-16, -1.000000000000000000 ) ) ;
#30 = AXIS2_PLACEMENT_3D ( 'NONE', #118, #139, #265 ) ;
#31 = EDGE_CURVE ( 'NONE', #122, #278, #186, .T. ) ;
#32 =( LENGTH_UNIT ( ) NAMED_UNIT ( * ) SI_UNIT ( .MILLI., .METRE. ) );
#33 = AXIS2_PLACEMENT_3D ( 'NONE', #75, #50, #255 ) ;
#34 = CYLINDRICAL_SURFACE ( 'NONE', #51, 1.999999999999996225 ) ;
#35 = ORIENTED_EDGE ( 'NONE', *, *, #308, .T. ) ;
#36 = DIRECTION ( 'NONE',  ( 3.491481338843133355E-15, -0.000000000000000000, 1.000000000000000000 ) ) ;
#37 = ORIENTED_EDGE ( 'NONE', *, *, #280, .F. ) ;
#38 = PRODUCT ( '57001', '57001', '', ( #26 ) ) ;
#39 = ORIENTED_EDGE ( 'NONE', *, *, #280, .T. ) ;
#40 = AXIS2_PLACEMENT_3D ( 'NONE', #336, #22, #184 ) ;
#41 = VERTEX_POINT ( 'NONE', #156 ) ;
#42 = EDGE_CURVE ( 'NONE', #215, #64, #15, .T. ) ;
#43 = CARTESIAN_POINT ( 'NONE',  ( -1.799999999999970735, 2.204364238465234097E-16, 8.000000000000007105 ) ) ;
#44 = ADVANCED_FACE ( 'NONE', ( #105 ), #237, .T. ) ;
#45 =( GEOMETRIC_REPRESENTATION_CONTEXT ( 3 ) GLOBAL_UNCERTAINTY_ASSIGNED_CONTEXT ( ( #228 ) ) GLOBAL_UNIT_ASSIGNED_CONTEXT ( ( #32, #57, #113 ) ) REPRESENTATION_CONTEXT ( 'NONE', 'WORKASPACE' ) );
#46 = APPLICATION_CONTEXT ( 'automotive_design' ) ;
#47 = ORIENTED_EDGE ( 'NONE', *, *, #308, .F. ) ;
#48 = CYLINDRICAL_SURFACE ( 'NONE', #127, 1.999999999999996225 ) ;
#49 = DIRECTION ( 'NONE',  ( 0.000000000000000000, 1.000000000000000000, 0.000000000000000000 ) ) ;
#50 = DIRECTION ( 'NONE',  ( 3.491481338843133355E-15, -1.224646799147353454E-16, 1.000000000000000000 ) ) ;
#51 = AXIS2_PLACEMENT_3D ( 'NONE', #136, #6, #296 ) ;
#52 = CARTESIAN_POINT ( 'NONE',  ( 2.793185071074506684E-14, 0.000000000000000000, 8.000000000000000000 ) ) ;
#53 = DIRECTION ( 'NONE',  ( 1.000000000000000000, 0.000000000000000000, -3.491481338843133355E-15 ) ) ;
#54 = CLOSED_SHELL ( 'NONE', ( #247, #44, #102, #13 ) ) ;
#55 = EDGE_CURVE ( 'NONE', #278, #327, #78, .T. ) ;
#56 = FACE_OUTER_BOUND ( 'NONE', #246, .T. ) ;
#57 =( NAMED_UNIT ( * ) PLANE_ANGLE_UNIT ( ) SI_UNIT ( $, .RADIAN. ) );
#58 = DIRECTION ( 'NONE',  ( 2.930988785010413898E-14, -1.000000000000000000, 0.000000000000000000 ) ) ;
#59 = DIRECTION ( 'NONE',  ( 0.000000000000000000, 1.000000000000000000, 0.000000000000000000 ) ) ;
#60 = VERTEX_POINT ( 'NONE', #262 ) ;
#61 = APPLICATION_PROTOCOL_DEFINITION ( 'draft international standard', 'automotive_design', 1998, #46 ) ;
#62 = FACE_OUTER_BOUND ( 'NONE', #176, .T. ) ;
#63 = EDGE_LOOP ( 'NONE', ( #191, #245, #303, #212 ) ) ;
#64 = VERTEX_POINT ( 'NONE', #109 ) ;
#65 = EDGE_CURVE ( 'NONE', #271, #327, #96, .T. ) ;
#66 = ORIENTED_EDGE ( 'NONE', *, *, #42, .F. ) ;
#67 = CIRCLE ( 'NONE', #256, 1.799999999999999822 ) ;
#68 = STYLED_ITEM ( 'NONE', ( #206 ), #111 ) ;
#69 = VERTEX_POINT ( 'NONE', #183 ) ;
#70 = FACE_OUTER_BOUND ( 'NONE', #166, .T. ) ;
#71 = DIRECTION ( 'NONE',  ( 3.491481338843133355E-15, -1.224646799147353454E-16, 1.000000000000000000 ) ) ;
#72 = VECTOR ( 'NONE', #131, 1000.000000000000114 ) ;
#73 = FACE_OUTER_BOUND ( 'NONE', #138, .T. ) ;
#74 = CARTESIAN_POINT ( 'NONE',  ( 2.987457057411375077E-14, -1.047858879337801398E-15, 8.556417083418349279 ) ) ;
#75 = CARTESIAN_POINT ( 'NONE',  ( 1.466422162314116009E-13, -5.143516556418883322E-15, 42.00000000000000000 ) ) ;
#76 =( GEOMETRIC_REPRESENTATION_CONTEXT ( 3 ) GLOBAL_UNCERTAINTY_ASSIGNED_CONTEXT ( ( #267 ) ) GLOBAL_UNIT_ASSIGNED_CONTEXT ( ( #188, #199, #252 ) ) REPRESENTATION_CONTEXT ( 'NONE', 'WORKASPACE' ) );
#77 = CONICAL_SURFACE ( 'NONE', #251, 1.999999999999996225, 0.7853981633974501664 ) ;
#78 = LINE ( 'NONE', #132, #28 ) ;
#79 = PRODUCT_RELATED_PRODUCT_CATEGORY ( 'part', '', ( #38 ) ) ;
#80 = DIRECTION ( 'NONE',  ( -3.491481338843133355E-15, 0.000000000000000000, -1.000000000000000000 ) ) ;
#81 = LINE ( 'NONE', #295, #72 ) ;
#82 = VECTOR ( 'NONE', #27, 1000.000000000000000 ) ;
#83 = CARTESIAN_POINT ( 'NONE',  ( 2.793185071074506684E-14, -9.797174393178827630E-16, 8.000000000000000000 ) ) ;
#84 = EDGE_CURVE ( 'NONE', #64, #215, #19, .T. ) ;
#85 = ORIENTED_EDGE ( 'NONE', *, *, #65, .F. ) ;
#86 = SURFACE_SIDE_STYLE ('',( #4 ) ) ;
#87 = CARTESIAN_POINT ( 'NONE',  ( 1.461643563874894899E-13, -1.599999999999988542, 42.00000000000000000 ) ) ;
#88 = ORIENTED_EDGE ( 'NONE', *, *, #31, .F. ) ;
#89 = PRODUCT_DEFINITION_FORMATION_WITH_SPECIFIED_SOURCE ( 'ANY', '', #38, .NOT_KNOWN. ) ;
#90 = LINE ( 'NONE', #241, #304 ) ;
#91 = ORIENTED_EDGE ( 'NONE', *, *, #55, .T. ) ;
#92 = ADVANCED_FACE ( 'NONE', ( #56 ), #202, .T. ) ;
#93 = ORIENTED_EDGE ( 'NONE', *, *, #196, .T. ) ;
#94 = ORIENTED_EDGE ( 'NONE', *, *, #120, .F. ) ;
#95 = CIRCLE ( 'NONE', #123, 1.999999999999996225 ) ;
#96 = CIRCLE ( 'NONE', #181, 1.799999999999998712 ) ;
#97 =( NAMED_UNIT ( * ) SI_UNIT ( $, .STERADIAN. ) SOLID_ANGLE_UNIT ( ) );
#98 = FACE_OUTER_BOUND ( 'NONE', #221, .T. ) ;
#99 = APPLICATION_CONTEXT ( 'automotive_design' ) ;
#100 = AXIS2_PLACEMENT_3D ( 'NONE', #337, #339, #53 ) ;
#101 = CARTESIAN_POINT ( 'NONE',  ( 1.452456236958743223E-13, -5.094530684452989105E-15, 41.59999999999999432 ) ) ;
#102 = ADVANCED_FACE ( 'NONE', ( #179 ), #342, .F. ) ;
#103 = CARTESIAN_POINT ( 'NONE',  ( 1.452456236958743223E-13, -5.094530684452989105E-15, 41.59999999999999432 ) ) ;
#104 = PLANE ( 'NONE',  #100 ) ;
#105 = FACE_OUTER_BOUND ( 'NONE', #11, .T. ) ;
#106 = COLOUR_RGB ( '',1.000000000000000000, 1.000000000000000000, 1.000000000000000000 ) ;
#107 = SURFACE_STYLE_USAGE ( .BOTH. , #234 ) ;
#108 = CARTESIAN_POINT ( 'NONE',  ( 2.793185071074506684E-14, 1.799999999999998712, 8.000000000000000000 ) ) ;
#109 = CARTESIAN_POINT ( 'NONE',  ( 1.459439199636429616E-13, 1.599999999999978106, 42.00000000000000000 ) ) ;
#110 = CARTESIAN_POINT ( 'NONE',  ( 2.793185071074506684E-14, 1.799999999999998712, 8.000000000000000000 ) ) ;
#111 = MANIFOLD_SOLID_BREP ( 'Corps-Déplacer/Copier1[2]', #54 ) ;
#112 = AXIS2_PLACEMENT_3D ( 'NONE', #108, #80, #341 ) ;
#113 =( NAMED_UNIT ( * ) SI_UNIT ( $, .STERADIAN. ) SOLID_ANGLE_UNIT ( ) );
#114 = CARTESIAN_POINT ( 'NONE',  ( 1.452456236958743223E-13, -5.094530684452989105E-15, 41.59999999999999432 ) ) ;
#115 = ORIENTED_EDGE ( 'NONE', *, *, #220, .F. ) ;
#116 = CARTESIAN_POINT ( 'NONE',  ( 2.449293598294693102E-16, -1.999999999999996225, -2.449293598294710852E-16 ) ) ;
#117 = ORIENTED_EDGE ( 'NONE', *, *, #205, .T. ) ;
#118 = CARTESIAN_POINT ( 'NONE',  ( 2.987457057411375077E-14, -1.047858879337801398E-15, 8.556417083418349279 ) ) ;
#119 = ORIENTED_EDGE ( 'NONE', *, *, #190, .F. ) ;
#120 = EDGE_CURVE ( 'NONE', #328, #193, #287, .T. ) ;
#121 = ORIENTED_EDGE ( 'NONE', *, *, #249, .T. ) ;
#122 = VERTEX_POINT ( 'NONE', #300 ) ;
#123 = AXIS2_PLACEMENT_3D ( 'NONE', #103, #331, #307 ) ;
#124 =( GEOMETRIC_REPRESENTATION_CONTEXT ( 3 ) GLOBAL_UNCERTAINTY_ASSIGNED_CONTEXT ( ( #326 ) ) GLOBAL_UNIT_ASSIGNED_CONTEXT ( ( #329, #309, #97 ) ) REPRESENTATION_CONTEXT ( 'NONE', 'WORKASPACE' ) );
#125 = DIRECTION ( 'NONE',  ( 0.000000000000000000, 1.000000000000000000, 0.000000000000000000 ) ) ;
#126 = ORIENTED_EDGE ( 'NONE', *, *, #187, .F. ) ;
#127 = AXIS2_PLACEMENT_3D ( 'NONE', #201, #178, #229 ) ;
#128 = AXIS2_PLACEMENT_3D ( 'NONE', #314, #230, #238 ) ;
#129 = ADVANCED_BREP_SHAPE_REPRESENTATION ( '57001', ( #227, #111, #282 ), #124 ) ;
#130 = DIRECTION ( 'NONE',  ( 1.000000000000000000, 0.000000000000000000, -3.491481338843133355E-15 ) ) ;
#131 = DIRECTION ( 'NONE',  ( -2.468850131082260216E-15, 0.7071067811865489050, -0.7071067811865461294 ) ) ;
#132 = CARTESIAN_POINT ( 'NONE',  ( -1.799999999999971179, 2.204364238465234590E-16, 8.000000000000007105 ) ) ;
#133 = AXIS2_PLACEMENT_3D ( 'NONE', #74, #151, #125 ) ;
#134 =( NAMED_UNIT ( * ) PLANE_ANGLE_UNIT ( ) SI_UNIT ( $, .RADIAN. ) );
#135 = PLANE ( 'NONE',  #276 ) ;
#136 = CARTESIAN_POINT ( 'NONE',  ( 0.000000000000000000, 0.000000000000000000, 0.000000000000000000 ) ) ;
#137 = CARTESIAN_POINT ( 'NONE',  ( 1.800000000000027134, 0.000000000000000000, 7.999999999999992895 ) ) ;
#138 = EDGE_LOOP ( 'NONE', ( #66, #142, #119, #171 ) ) ;
#139 = DIRECTION ( 'NONE',  ( -3.491481338843133355E-15, 1.224646799147353454E-16, -1.000000000000000000 ) ) ;
#140 = ORIENTED_EDGE ( 'NONE', *, *, #65, .T. ) ;
#141 = ORIENTED_EDGE ( 'NONE', *, *, #190, .T. ) ;
#142 = ORIENTED_EDGE ( 'NONE', *, *, #153, .T. ) ;
#143 = EDGE_CURVE ( 'NONE', #69, #193, #161, .T. ) ;
#144 = CARTESIAN_POINT ( 'NONE',  ( 2.793185071074506684E-14, -9.797174393178827630E-16, 8.000000000000000000 ) ) ;
#145 = EDGE_LOOP ( 'NONE', ( #141, #275, #325, #115 ) ) ;
#146 = DIRECTION ( 'NONE',  ( 1.000000000000000000, 0.000000000000000000, -3.491481338843133355E-15 ) ) ;
#147 = ADVANCED_FACE ( 'NONE', ( #62 ), #135, .T. ) ;
#148 = DIRECTION ( 'NONE',  ( 3.327098416510789187E-15, 0.3382550599108808398, 0.9410544694355829076 ) ) ;
#149 = CIRCLE ( 'NONE', #30, 1.999999999999994005 ) ;
#150 = CIRCLE ( 'NONE', #240, 1.799999999999999822 ) ;
#151 = DIRECTION ( 'NONE',  ( -3.491481338843133355E-15, 1.224646799147353454E-16, -1.000000000000000000 ) ) ;
#152 = DIRECTION ( 'NONE',  ( 3.491481338843133355E-15, -0.000000000000000000, 1.000000000000000000 ) ) ;
#153 = EDGE_CURVE ( 'NONE', #215, #69, #90, .T. ) ;
#154 = DIRECTION ( 'NONE',  ( 1.000000000000000000, 0.000000000000000000, 0.000000000000000000 ) ) ;
#155 = CARTESIAN_POINT ( 'NONE',  ( 2.793185071074506684E-14, -9.797174393178827630E-16, 8.000000000000000000 ) ) ;
#156 = CARTESIAN_POINT ( 'NONE',  ( 8.756009713499403971E-14, 1.999999999999990896, 41.59999999999999432 ) ) ;
#157 =( NAMED_UNIT ( * ) SI_UNIT ( $, .STERADIAN. ) SOLID_ANGLE_UNIT ( ) );
#158 = DIRECTION ( 'NONE',  ( -3.491481338843133355E-15, 1.224646799147353454E-16, -1.000000000000000000 ) ) ;
#159 = ADVANCED_FACE ( 'NONE', ( #317 ), #34, .T. ) ;
#160 = DIRECTION ( 'NONE',  ( 0.000000000000000000, 0.000000000000000000, 1.000000000000000000 ) ) ;
#161 = LINE ( 'NONE', #116, #82 ) ;
#162 = VERTEX_POINT ( 'NONE', #272 ) ;
#163 = CIRCLE ( 'NONE', #133, 1.999999999999994005 ) ;
#164 = CARTESIAN_POINT ( 'NONE',  ( 8.780502649482349739E-14, -1.999999999999994893, 8.556417083418349279 ) ) ;
#165 = EDGE_LOOP ( 'NONE', ( #47, #319, #168, #194 ) ) ;
#166 = EDGE_LOOP ( 'NONE', ( #248, #91, #85, #126 ) ) ;
#167 = AXIS2_PLACEMENT_3D ( 'NONE', #155, #260, #263 ) ;
#168 = ORIENTED_EDGE ( 'NONE', *, *, #120, .T. ) ;
#169 = AXIS2_PLACEMENT_3D ( 'NONE', #310, #281, #286 ) ;
#170 = CIRCLE ( 'NONE', #258, 1.999999999999996225 ) ;
#171 = ORIENTED_EDGE ( 'NONE', *, *, #25, .F. ) ;
#172 = PRODUCT_DEFINITION_CONTEXT ( 'detailed design', #46, 'design' ) ;
#173 = ORIENTED_EDGE ( 'NONE', *, *, #332, .F. ) ;
#174 = CARTESIAN_POINT ( 'NONE',  ( 0.000000000000000000, 0.000000000000000000, 0.000000000000000000 ) ) ;
#175 = AXIS2_PLACEMENT_3D ( 'NONE', #144, #250, #49 ) ;
#176 = EDGE_LOOP ( 'NONE', ( #93, #243 ) ) ;
#177 = DIRECTION ( 'NONE',  ( -3.491481338843133355E-15, 1.224646799147369477E-16, -1.000000000000000000 ) ) ;
#178 = DIRECTION ( 'NONE',  ( -3.491481338843133355E-15, 1.224646799147353454E-16, -1.000000000000000000 ) ) ;
#179 = FACE_OUTER_BOUND ( 'NONE', #283, .T. ) ;
#180 = AXIS2_PLACEMENT_3D ( 'NONE', #12, #305, #335 ) ;
#181 = AXIS2_PLACEMENT_3D ( 'NONE', #293, #312, #311 ) ;
#182 = FILL_AREA_STYLE ('',( #192 ) ) ;
#183 = CARTESIAN_POINT ( 'NONE',  ( 8.780502649482344690E-14, -2.000000000000001332, 41.59999999999999432 ) ) ;
#184 = DIRECTION ( 'NONE',  ( 0.000000000000000000, -1.000000000000000000, 0.000000000000000000 ) ) ;
#185 = DIRECTION ( 'NONE',  ( 3.491481338843133355E-15, -0.000000000000000000, 1.000000000000000000 ) ) ;
#186 = CIRCLE ( 'NONE', #294, 1.799999999999999822 ) ;
#187 = EDGE_CURVE ( 'NONE', #122, #271, #3, .T. ) ;
#188 =( LENGTH_UNIT ( ) NAMED_UNIT ( * ) SI_UNIT ( .MILLI., .METRE. ) );
#189 = CARTESIAN_POINT ( 'NONE',  ( 2.793185071074506684E-14, -1.800000000000000711, 8.000000000000000000 ) ) ;
#190 = EDGE_CURVE ( 'NONE', #41, #69, #170, .T. ) ;
#191 = ORIENTED_EDGE ( 'NONE', *, *, #153, .F. ) ;
#192 = FILL_AREA_STYLE_COLOUR ( '', #106 ) ;
#193 = VERTEX_POINT ( 'NONE', #164 ) ;
#194 = ORIENTED_EDGE ( 'NONE', *, *, #321, .T. ) ;
#195 = ORIENTED_EDGE ( 'NONE', *, *, #42, .T. ) ;
#196 = EDGE_CURVE ( 'NONE', #328, #60, #150, .T. ) ;
#197 = MECHANICAL_DESIGN_GEOMETRIC_PRESENTATION_REPRESENTATION (  '', ( #17 ), #76 ) ;
#198 = VECTOR ( 'NONE', #242, 1000.000000000000114 ) ;
#199 =( NAMED_UNIT ( * ) PLANE_ANGLE_UNIT ( ) SI_UNIT ( $, .RADIAN. ) );
#200 = FACE_OUTER_BOUND ( 'NONE', #165, .T. ) ;
#201 = CARTESIAN_POINT ( 'NONE',  ( 0.000000000000000000, 0.000000000000000000, 0.000000000000000000 ) ) ;
#202 = PLANE ( 'NONE',  #33 ) ;
#203 = DIRECTION ( 'NONE',  ( 1.000000000000000000, 0.000000000000000000, -3.854941057726239478E-15 ) ) ;
#204 = SURFACE_STYLE_FILL_AREA ( #290 ) ;
#205 = EDGE_CURVE ( 'NONE', #162, #193, #149, .T. ) ;
#206 = PRESENTATION_STYLE_ASSIGNMENT (( #107 ) ) ;
#207 = CONICAL_SURFACE ( 'NONE', #167, 1.799999999999999822, 0.3450620389298179602 ) ;
#208 = PRESENTATION_STYLE_ASSIGNMENT (( #268 ) ) ;
#209 = AXIS2_PLACEMENT_3D ( 'NONE', #279, #334, #284 ) ;
#210 = SURFACE_SIDE_STYLE ('',( #216 ) ) ;
#211 = PRESENTATION_STYLE_ASSIGNMENT (( #318 ) ) ;
#212 = ORIENTED_EDGE ( 'NONE', *, *, #249, .F. ) ;
#213 = CARTESIAN_POINT ( 'NONE',  ( 0.000000000000000000, 0.000000000000000000, 0.000000000000000000 ) ) ;
#214 = DIRECTION ( 'NONE',  ( -3.491481338843133355E-15, 1.224646799147369477E-16, -1.000000000000000000 ) ) ;
#215 = VERTEX_POINT ( 'NONE', #87 ) ;
#216 = SURFACE_STYLE_FILL_AREA ( #244 ) ;
#217 = FACE_OUTER_BOUND ( 'NONE', #219, .T. ) ;
#218 = AXIS2_PLACEMENT_3D ( 'NONE', #225, #71, #330 ) ;
#219 = EDGE_LOOP ( 'NONE', ( #173, #35, #117, #94 ) ) ;
#220 = EDGE_CURVE ( 'NONE', #41, #162, #8, .T. ) ;
#221 = EDGE_LOOP ( 'NONE', ( #322, #121, #277, #302 ) ) ;
#222 = CARTESIAN_POINT ( 'NONE',  ( 2.815228713459159200E-14, 1.799999999999998712, 8.000000000000000000 ) ) ;
#223 = COLOUR_RGB ( '',1.000000000000000000, 1.000000000000000000, 1.000000000000000000 ) ;
#224 = COLOUR_RGB ( '',1.000000000000000000, 1.000000000000000000, 1.000000000000000000 ) ;
#225 = CARTESIAN_POINT ( 'NONE',  ( 2.793185071074506684E-14, -9.797174393178827630E-16, 8.000000000000000000 ) ) ;
#226 = CARTESIAN_POINT ( 'NONE',  ( -1.799999999999999600, 2.204364238465252339E-16, 6.284666409917638462E-15 ) ) ;
#227 = MANIFOLD_SOLID_BREP ( 'Corps-Déplacer/Copier1[1]', #333 ) ;
#228 = UNCERTAINTY_MEASURE_WITH_UNIT (LENGTH_MEASURE( 1.000000000000000082E-05 ), #32, 'distance_accuracy_value', 'NONE');
#229 = DIRECTION ( 'NONE',  ( 4.275831445896959482E-31, 1.000000000000000000, 1.224646799147353207E-16 ) ) ;
#230 = DIRECTION ( 'NONE',  ( 3.491481338843133355E-15, -1.224646799147353454E-16, 1.000000000000000000 ) ) ;
#231 = SHAPE_DEFINITION_REPRESENTATION ( #233, #129 ) ;
#232 = CARTESIAN_POINT ( 'NONE',  ( 0.000000000000000000, 0.000000000000000000, 0.000000000000000000 ) ) ;
#233 = PRODUCT_DEFINITION_SHAPE ( 'NONE', 'NONE',  #236 ) ;
#234 = SURFACE_SIDE_STYLE ('',( #204 ) ) ;
#235 = CONICAL_SURFACE ( 'NONE', #218, 1.799999999999999822, 0.3450620389298179602 ) ;
#236 = PRODUCT_DEFINITION ( 'UNKNOWN', '', #89, #172 ) ;
#237 = CYLINDRICAL_SURFACE ( 'NONE', #266, 1.799999999999999156 ) ;
#238 = DIRECTION ( 'NONE',  ( 0.000000000000000000, -1.000000000000000000, 0.000000000000000000 ) ) ;
#239 = CARTESIAN_POINT ( 'NONE',  ( 8.551662891793903200E-31, 1.999999999999996225, 2.449293598294701977E-16 ) ) ;
#240 = AXIS2_PLACEMENT_3D ( 'NONE', #83, #343, #59 ) ;
#241 = CARTESIAN_POINT ( 'NONE',  ( 1.454905530557037926E-13, -2.000000000000001332, 41.59999999999999432 ) ) ;
#242 = DIRECTION ( 'NONE',  ( 3.285674118869262999E-15, -0.3382550599108810618, 0.9410544694355827966 ) ) ;
#243 = ORIENTED_EDGE ( 'NONE', *, *, #332, .T. ) ;
#244 = FILL_AREA_STYLE ('',( #297 ) ) ;
#245 = ORIENTED_EDGE ( 'NONE', *, *, #84, .F. ) ;
#246 = EDGE_LOOP ( 'NONE', ( #7, #195 ) ) ;
#247 = ADVANCED_FACE ( 'NONE', ( #70 ), #16, .T. ) ;
#248 = ORIENTED_EDGE ( 'NONE', *, *, #31, .T. ) ;
#249 = EDGE_CURVE ( 'NONE', #69, #41, #95, .T. ) ;
#250 = DIRECTION ( 'NONE',  ( -3.491481338843133355E-15, 1.224646799147353454E-16, -1.000000000000000000 ) ) ;
#251 = AXIS2_PLACEMENT_3D ( 'NONE', #101, #177, #253 ) ;
#252 =( NAMED_UNIT ( * ) SI_UNIT ( $, .STERADIAN. ) SOLID_ANGLE_UNIT ( ) );
#253 = DIRECTION ( 'NONE',  ( 0.000000000000000000, 1.000000000000000000, 0.000000000000000000 ) ) ;
#254 = LINE ( 'NONE', #222, #24 ) ;
#255 = DIRECTION ( 'NONE',  ( -4.275831445896959482E-31, -1.000000000000000000, -1.224646799147353454E-16 ) ) ;
#256 = AXIS2_PLACEMENT_3D ( 'NONE', #174, #306, #146 ) ;
#257 = ADVANCED_FACE ( 'NONE', ( #98 ), #48, .T. ) ;
#258 = AXIS2_PLACEMENT_3D ( 'NONE', #114, #214, #58 ) ;
#259 = CARTESIAN_POINT ( 'NONE',  ( 2.890321064242941196E-14, -1.800000000000000711, 8.000000000000000000 ) ) ;
#260 = DIRECTION ( 'NONE',  ( 3.491481338843133355E-15, -1.224646799147353454E-16, 1.000000000000000000 ) ) ;
#261 = DIRECTION ( 'NONE',  ( 3.491481338843133355E-15, -0.000000000000000000, 1.000000000000000000 ) ) ;
#262 = CARTESIAN_POINT ( 'NONE',  ( 2.913589353426740496E-14, 1.799999999999998712, 8.000000000000000000 ) ) ;
#263 = DIRECTION ( 'NONE',  ( 0.000000000000000000, -1.000000000000000000, 0.000000000000000000 ) ) ;
#264 = APPLICATION_PROTOCOL_DEFINITION ( 'draft international standard', 'automotive_design', 1998, #99 ) ;
#265 = DIRECTION ( 'NONE',  ( 0.000000000000000000, 1.000000000000000000, 0.000000000000000000 ) ) ;
#266 = AXIS2_PLACEMENT_3D ( 'NONE', #52, #185, #203 ) ;
#267 = UNCERTAINTY_MEASURE_WITH_UNIT (LENGTH_MEASURE( 1.000000000000000082E-05 ), #188, 'distance_accuracy_value', 'NONE');
#268 = SURFACE_STYLE_USAGE ( .BOTH. , #86 ) ;
#269 = CIRCLE ( 'NONE', #175, 1.799999999999999822 ) ;
#270 = PRESENTATION_LAYER_ASSIGNMENT (  '', '', ( #68 ) ) ;
#271 = VERTEX_POINT ( 'NONE', #14 ) ;
#272 = CARTESIAN_POINT ( 'NONE',  ( 2.987457057411375077E-14, 1.999999999999993117, 8.556417083418349279 ) ) ;
#273 = ORIENTED_EDGE ( 'NONE', *, *, #187, .T. ) ;
#274 = ADVANCED_FACE ( 'NONE', ( #73 ), #315, .T. ) ;
#275 = ORIENTED_EDGE ( 'NONE', *, *, #143, .T. ) ;
#276 = AXIS2_PLACEMENT_3D ( 'NONE', #110, #29, #324 ) ;
#277 = ORIENTED_EDGE ( 'NONE', *, *, #220, .T. ) ;
#278 = VERTEX_POINT ( 'NONE', #226 ) ;
#279 = CARTESIAN_POINT ( 'NONE',  ( 1.452456236958743223E-13, -5.094530684452989105E-15, 41.59999999999999432 ) ) ;
#280 = EDGE_CURVE ( 'NONE', #278, #122, #67, .T. ) ;
#281 = DIRECTION ( 'NONE',  ( 3.491481338843133355E-15, -0.000000000000000000, 1.000000000000000000 ) ) ;
#282 = AXIS2_PLACEMENT_3D ( 'NONE', #213, #160, #154 ) ;
#283 = EDGE_LOOP ( 'NONE', ( #140, #10 ) ) ;
#284 = DIRECTION ( 'NONE',  ( 0.000000000000000000, 1.000000000000000000, 0.000000000000000000 ) ) ;
#285 = EDGE_CURVE ( 'NONE', #327, #271, #288, .T. ) ;
#286 = DIRECTION ( 'NONE',  ( 1.000000000000000000, 0.000000000000000000, -3.854941057726241055E-15 ) ) ;
#287 = LINE ( 'NONE', #189, #198 ) ;
#288 = CIRCLE ( 'NONE', #169, 1.799999999999998712 ) ;
#289 = MECHANICAL_DESIGN_GEOMETRIC_PRESENTATION_REPRESENTATION (  '', ( #68 ), #2 ) ;
#290 = FILL_AREA_STYLE ('',( #18 ) ) ;
#291 = ADVANCED_FACE ( 'NONE', ( #20 ), #77, .T. ) ;
#292 =( LENGTH_UNIT ( ) NAMED_UNIT ( * ) SI_UNIT ( .MILLI., .METRE. ) );
#293 = CARTESIAN_POINT ( 'NONE',  ( 2.793185071074506684E-14, 0.000000000000000000, 8.000000000000000000 ) ) ;
#294 = AXIS2_PLACEMENT_3D ( 'NONE', #232, #261, #130 ) ;
#295 = CARTESIAN_POINT ( 'NONE',  ( 1.452456236958743223E-13, 1.999999999999990896, 41.59999999999999432 ) ) ;
#296 = DIRECTION ( 'NONE',  ( 4.275831445896959482E-31, 1.000000000000000000, 1.224646799147353207E-16 ) ) ;
#297 = FILL_AREA_STYLE_COLOUR ( '', #223 ) ;
#298 = ORIENTED_EDGE ( 'NONE', *, *, #285, .F. ) ;
#299 = PRESENTATION_LAYER_ASSIGNMENT (  '', '', ( #323 ) ) ;
#300 = CARTESIAN_POINT ( 'NONE',  ( 1.799999999999999822, 0.000000000000000000, -6.284666409917639251E-15 ) ) ;
#301 = EDGE_LOOP ( 'NONE', ( #88, #37 ) ) ;
#302 = ORIENTED_EDGE ( 'NONE', *, *, #321, .F. ) ;
#303 = ORIENTED_EDGE ( 'NONE', *, *, #25, .T. ) ;
#304 = VECTOR ( 'NONE', #320, 1000.000000000000000 ) ;
#305 = DIRECTION ( 'NONE',  ( 3.491481338843133355E-15, -0.000000000000000000, 1.000000000000000000 ) ) ;
#306 = DIRECTION ( 'NONE',  ( 3.491481338843133355E-15, -0.000000000000000000, 1.000000000000000000 ) ) ;
#307 = DIRECTION ( 'NONE',  ( -2.842170943040400743E-14, -1.000000000000000000, 0.000000000000000000 ) ) ;
#308 = EDGE_CURVE ( 'NONE', #60, #162, #254, .T. ) ;
#309 =( NAMED_UNIT ( * ) PLANE_ANGLE_UNIT ( ) SI_UNIT ( $, .RADIAN. ) );
#310 = CARTESIAN_POINT ( 'NONE',  ( 2.793185071074506684E-14, 0.000000000000000000, 8.000000000000000000 ) ) ;
#311 = DIRECTION ( 'NONE',  ( 1.000000000000000000, 0.000000000000000000, -3.854941057726241055E-15 ) ) ;
#312 = DIRECTION ( 'NONE',  ( 3.491481338843133355E-15, -0.000000000000000000, 1.000000000000000000 ) ) ;
#313 = PRESENTATION_LAYER_ASSIGNMENT (  '', '', ( #17 ) ) ;
#314 = CARTESIAN_POINT ( 'NONE',  ( 1.466422162314116009E-13, -5.143516556418884900E-15, 42.00000000000000000 ) ) ;
#315 = CONICAL_SURFACE ( 'NONE', #209, 1.999999999999996225, 0.7853981633974501664 ) ;
#316 = VECTOR ( 'NONE', #36, 1000.000000000000000 ) ;
#317 = FACE_OUTER_BOUND ( 'NONE', #145, .T. ) ;
#318 = SURFACE_STYLE_USAGE ( .BOTH. , #210 ) ;
#319 = ORIENTED_EDGE ( 'NONE', *, *, #196, .F. ) ;
#320 = DIRECTION ( 'NONE',  ( -2.382254525458711947E-15, -0.7071067811865487940, -0.7071067811865463515 ) ) ;
#321 = EDGE_CURVE ( 'NONE', #193, #162, #163, .T. ) ;
#322 = ORIENTED_EDGE ( 'NONE', *, *, #143, .F. ) ;
#323 = STYLED_ITEM ( 'NONE', ( #208 ), #129 ) ;
#324 = DIRECTION ( 'NONE',  ( 4.275831445896959482E-31, 1.000000000000000000, 1.224646799147353454E-16 ) ) ;
#325 = ORIENTED_EDGE ( 'NONE', *, *, #205, .F. ) ;
#326 = UNCERTAINTY_MEASURE_WITH_UNIT (LENGTH_MEASURE( 1.000000000000000082E-05 ), #329, 'distance_accuracy_value', 'NONE');
#327 = VERTEX_POINT ( 'NONE', #43 ) ;
#328 = VERTEX_POINT ( 'NONE', #259 ) ;
#329 =( LENGTH_UNIT ( ) NAMED_UNIT ( * ) SI_UNIT ( .MILLI., .METRE. ) );
#330 = DIRECTION ( 'NONE',  ( 0.000000000000000000, -1.000000000000000000, 0.000000000000000000 ) ) ;
#331 = DIRECTION ( 'NONE',  ( -3.491481338843133355E-15, 1.224646799147369477E-16, -1.000000000000000000 ) ) ;
#332 = EDGE_CURVE ( 'NONE', #60, #328, #269, .T. ) ;
#333 = CLOSED_SHELL ( 'NONE', ( #274, #5, #159, #147, #92, #257, #338, #291 ) ) ;
#334 = DIRECTION ( 'NONE',  ( -3.491481338843133355E-15, 1.224646799147369477E-16, -1.000000000000000000 ) ) ;
#335 = DIRECTION ( 'NONE',  ( 1.000000000000000000, 0.000000000000000000, -3.854941057726239478E-15 ) ) ;
#336 = CARTESIAN_POINT ( 'NONE',  ( 1.466422162314116009E-13, -5.143516556418884900E-15, 42.00000000000000000 ) ) ;
#337 = CARTESIAN_POINT ( 'NONE',  ( -2.458603081390753082E-31, 1.799999999999999822, -7.041719095097286303E-17 ) ) ;
#338 = ADVANCED_FACE ( 'NONE', ( #200 ), #235, .T. ) ;
#339 = DIRECTION ( 'NONE',  ( 3.491481338843133355E-15, -0.000000000000000000, 1.000000000000000000 ) ) ;
#340 = MECHANICAL_DESIGN_GEOMETRIC_PRESENTATION_REPRESENTATION (  '', ( #323 ), #45 ) ;
#341 = DIRECTION ( 'NONE',  ( -1.000000000000000000, 0.000000000000000000, 3.491481338843133355E-15 ) ) ;
#342 = PLANE ( 'NONE',  #112 ) ;
#343 = DIRECTION ( 'NONE',  ( -3.491481338843133355E-15, 1.224646799147353454E-16, -1.000000000000000000 ) ) ;
ENDSEC;
END-ISO-10303-21;
