ISO-10303-21;
HEADER;
FILE_DESCRIPTION (( 'STEP AP214' ),
    '1' );
FILE_NAME ('57000.step',
    '2024-04-04T09:56:05',
    ( '' ),
    ( '' ),
    'SwSTEP 2.0',
    'SolidWorks 2022',
    '' );
FILE_SCHEMA (( 'AUTOMOTIVE_DESIGN' ));
ENDSEC;

DATA;
#1 = DIRECTION ( 'NONE',  ( 1.000000000000000000, 0.000000000000000000, -3.528251137579948177E-15 ) ) ;
#2 = CARTESIAN_POINT ( 'NONE',  ( 5.237222008264700033E-14, 2.949999999999998845, 15.00000000000000000 ) ) ;
#3 = ORIENTED_EDGE ( 'NONE', *, *, #323, .F. ) ;
#4 = DIRECTION ( 'NONE',  ( 3.491481338843133355E-15, -1.224646799147353207E-16, 1.000000000000000000 ) ) ;
#5 = DIRECTION ( 'NONE',  ( -3.491481338843133355E-15, 1.224646799147353207E-16, -1.000000000000000000 ) ) ;
#6 = VECTOR ( 'NONE', #181, 1000.000000000000000 ) ;
#7 = EDGE_LOOP ( 'NONE', ( #189, #144 ) ) ;
#8 = ORIENTED_EDGE ( 'NONE', *, *, #305, .F. ) ;
#9 = DIRECTION ( 'NONE',  ( 1.000000000000000000, 0.000000000000000000, -3.528251137579947388E-15 ) ) ;
#10 = DIRECTION ( 'NONE',  ( -3.491481338843133355E-15, 1.224646799147353207E-16, -1.000000000000000000 ) ) ;
#11 = DIRECTION ( 'NONE',  ( 2.486899575160350019E-14, -1.000000000000000000, 0.000000000000000000 ) ) ;
#12 = CARTESIAN_POINT ( 'NONE',  ( 0.000000000000000000, 0.000000000000000000, 0.000000000000000000 ) ) ;
#13 = AXIS2_PLACEMENT_3D ( 'NONE', #60, #269, #30 ) ;
#14 = MECHANICAL_DESIGN_GEOMETRIC_PRESENTATION_REPRESENTATION (  '', ( #118 ), #21 ) ;
#15 = DIRECTION ( 'NONE',  ( -3.491481338843133355E-15, 1.224646799147353207E-16, -1.000000000000000000 ) ) ;
#16 = DIRECTION ( 'NONE',  ( 1.000000000000000000, 0.000000000000000000, -3.528251137579947388E-15 ) ) ;
#17 = FILL_AREA_STYLE_COLOUR ( '', #71 ) ;
#18 =( LENGTH_UNIT ( ) NAMED_UNIT ( * ) SI_UNIT ( .MILLI., .METRE. ) );
#19 = SURFACE_STYLE_FILL_AREA ( #228 ) ;
#20 = AXIS2_PLACEMENT_3D ( 'NONE', #173, #297, #63 ) ;
#21 =( GEOMETRIC_REPRESENTATION_CONTEXT ( 3 ) GLOBAL_UNCERTAINTY_ASSIGNED_CONTEXT ( ( #130 ) ) GLOBAL_UNIT_ASSIGNED_CONTEXT ( ( #18, #148, #295 ) ) REPRESENTATION_CONTEXT ( 'NONE', 'WORKASPACE' ) );
#22 = UNCERTAINTY_MEASURE_WITH_UNIT (LENGTH_MEASURE( 1.000000000000000082E-05 ), #152, 'distance_accuracy_value', 'NONE');
#23 = ORIENTED_EDGE ( 'NONE', *, *, #287, .F. ) ;
#24 = CARTESIAN_POINT ( 'NONE',  ( -2.949999999999946443, 3.612708057484691604E-16, 15.00000000000001066 ) ) ;
#25 = DIRECTION ( 'NONE',  ( 1.000000000000000000, 0.000000000000000000, -3.491481338843133355E-15 ) ) ;
#26 = VERTEX_POINT ( 'NONE', #164 ) ;
#27 =( LENGTH_UNIT ( ) NAMED_UNIT ( * ) SI_UNIT ( .MILLI., .METRE. ) );
#28 = CLOSED_SHELL ( 'NONE', ( #178, #95, #285, #42 ) ) ;
#29 = ORIENTED_EDGE ( 'NONE', *, *, #234, .T. ) ;
#30 = DIRECTION ( 'NONE',  ( 1.000000000000000000, 0.000000000000000000, -3.528251137579948177E-15 ) ) ;
#31 = FACE_OUTER_BOUND ( 'NONE', #185, .T. ) ;
#32 = ORIENTED_EDGE ( 'NONE', *, *, #197, .F. ) ;
#33 = PLANE ( 'NONE',  #131 ) ;
#34 = AXIS2_PLACEMENT_3D ( 'NONE', #65, #126, #147 ) ;
#35 = ORIENTED_EDGE ( 'NONE', *, *, #99, .T. ) ;
#36 = ADVANCED_FACE ( 'NONE', ( #83 ), #191, .T. ) ;
#37 = DIRECTION ( 'NONE',  ( -3.491481338843133355E-15, 1.224646799147353207E-16, -1.000000000000000000 ) ) ;
#38 = CARTESIAN_POINT ( 'NONE',  ( 1.969195475107526960E-13, -6.907007947191071191E-15, 56.39999999999999147 ) ) ;
#39 = EDGE_CURVE ( 'NONE', #319, #26, #115, .T. ) ;
#40 = ORIENTED_EDGE ( 'NONE', *, *, #227, .F. ) ;
#41 = CYLINDRICAL_SURFACE ( 'NONE', #259, 2.999999999999999112 ) ;
#42 = ADVANCED_FACE ( 'NONE', ( #219 ), #263, .F. ) ;
#43 = CIRCLE ( 'NONE', #102, 2.999999999999999112 ) ;
#44 = DIRECTION ( 'NONE',  ( -3.491481338843133355E-15, 1.224646799147353207E-16, -1.000000000000000000 ) ) ;
#45 =( LENGTH_UNIT ( ) NAMED_UNIT ( * ) SI_UNIT ( .MILLI., .METRE. ) );
#46 = SURFACE_STYLE_USAGE ( .BOTH. , #300 ) ;
#47 = CARTESIAN_POINT ( 'NONE',  ( 5.237222008264700033E-14, -1.836970198721029589E-15, 15.00000000000000000 ) ) ;
#48 = CIRCLE ( 'NONE', #13, 2.949999999999998845 ) ;
#49 = ORIENTED_EDGE ( 'NONE', *, *, #305, .T. ) ;
#50 = DIRECTION ( 'NONE',  ( 0.000000000000000000, 1.000000000000000000, 0.000000000000000000 ) ) ;
#51 = ORIENTED_EDGE ( 'NONE', *, *, #254, .F. ) ;
#52 = DIRECTION ( 'NONE',  ( -3.491481338843133355E-15, 1.224646799147353207E-16, -1.000000000000000000 ) ) ;
#53 = ORIENTED_EDGE ( 'NONE', *, *, #106, .T. ) ;
#54 = SURFACE_SIDE_STYLE ('',( #19 ) ) ;
#55 = DIRECTION ( 'NONE',  ( -4.275831445896958607E-31, -1.000000000000000000, -1.224646799147353207E-16 ) ) ;
#56 = ORIENTED_EDGE ( 'NONE', *, *, #106, .F. ) ;
#57 = SHAPE_DEFINITION_REPRESENTATION ( #140, #184 ) ;
#58 = AXIS2_PLACEMENT_3D ( 'NONE', #169, #82, #265 ) ;
#59 = ORIENTED_EDGE ( 'NONE', *, *, #66, .T. ) ;
#60 = CARTESIAN_POINT ( 'NONE',  ( 5.237222008264700033E-14, 0.000000000000000000, 15.00000000000000000 ) ) ;
#61 = DIRECTION ( 'NONE',  ( 0.000000000000000000, 1.000000000000000000, 0.000000000000000000 ) ) ;
#62 = DIRECTION ( 'NONE',  ( 4.275831445896958607E-31, 1.000000000000000000, 1.224646799147353207E-16 ) ) ;
#63 = DIRECTION ( 'NONE',  ( 0.000000000000000000, -1.000000000000000000, 0.000000000000000000 ) ) ;
#64 = FACE_OUTER_BOUND ( 'NONE', #315, .T. ) ;
#65 = CARTESIAN_POINT ( 'NONE',  ( 0.000000000000000000, 0.000000000000000000, 0.000000000000000000 ) ) ;
#66 = EDGE_CURVE ( 'NONE', #335, #303, #85, .T. ) ;
#67 = CARTESIAN_POINT ( 'NONE',  ( -2.949999999999946887, 3.612708057484691604E-16, 15.00000000000001066 ) ) ;
#68 = DIRECTION ( 'NONE',  ( 0.000000000000000000, 0.000000000000000000, 1.000000000000000000 ) ) ;
#69 = CARTESIAN_POINT ( 'NONE',  ( 1.969195475107526960E-13, -6.907007947191071191E-15, 56.39999999999999147 ) ) ;
#70 = FACE_OUTER_BOUND ( 'NONE', #122, .T. ) ;
#71 = COLOUR_RGB ( '',1.000000000000000000, 1.000000000000000000, 1.000000000000000000 ) ;
#72 = DIRECTION ( 'NONE',  ( -3.491481338843133750E-15, 1.224646799147345072E-16, -1.000000000000000000 ) ) ;
#73 = MECHANICAL_DESIGN_GEOMETRIC_PRESENTATION_REPRESENTATION (  '', ( #150 ), #87 ) ;
#74 = CIRCLE ( 'NONE', #340, 2.999999999999996447 ) ;
#75 = EDGE_LOOP ( 'NONE', ( #244, #279, #23, #32 ) ) ;
#76 = FILL_AREA_STYLE ('',( #307 ) ) ;
#77 = DIRECTION ( 'NONE',  ( 3.285674118869262999E-15, -0.3382550599108812839, 0.9410544694355827966 ) ) ;
#78 = VERTEX_POINT ( 'NONE', #167 ) ;
#79 = CIRCLE ( 'NONE', #182, 2.950000000000000622 ) ;
#80 = DIRECTION ( 'NONE',  ( -3.491481338843133355E-15, 1.224646799147353207E-16, -1.000000000000000000 ) ) ;
#81 = CARTESIAN_POINT ( 'NONE',  ( 3.673940397442046063E-16, -2.999999999999999112, -3.673940397442071208E-16 ) ) ;
#82 = DIRECTION ( 'NONE',  ( 3.491481338843133355E-15, -1.224646799147353207E-16, 1.000000000000000000 ) ) ;
#83 = FACE_OUTER_BOUND ( 'NONE', #155, .T. ) ;
#84 = ORIENTED_EDGE ( 'NONE', *, *, #240, .T. ) ;
#85 = LINE ( 'NONE', #214, #320 ) ;
#86 = EDGE_LOOP ( 'NONE', ( #264, #93, #286, #100 ) ) ;
#87 =( GEOMETRIC_REPRESENTATION_CONTEXT ( 3 ) GLOBAL_UNCERTAINTY_ASSIGNED_CONTEXT ( ( #22 ) ) GLOBAL_UNIT_ASSIGNED_CONTEXT ( ( #152, #157, #211 ) ) REPRESENTATION_CONTEXT ( 'NONE', 'WORKASPACE' ) );
#88 = CONICAL_SURFACE ( 'NONE', #58, 2.950000000000000622, 0.3450620389298182378 ) ;
#89 = DIRECTION ( 'NONE',  ( 3.491481338843133355E-15, -0.000000000000000000, 1.000000000000000000 ) ) ;
#90 = CARTESIAN_POINT ( 'NONE',  ( 0.000000000000000000, 0.000000000000000000, 0.000000000000000000 ) ) ;
#91 = ORIENTED_EDGE ( 'NONE', *, *, #310, .T. ) ;
#92 = AXIS2_PLACEMENT_3D ( 'NONE', #108, #4, #55 ) ;
#93 = ORIENTED_EDGE ( 'NONE', *, *, #234, .F. ) ;
#94 = FACE_OUTER_BOUND ( 'NONE', #121, .T. ) ;
#95 = ADVANCED_FACE ( 'NONE', ( #31 ), #137, .T. ) ;
#96 = DIRECTION ( 'NONE',  ( -1.000000000000000000, 0.000000000000000000, 3.491481338843133355E-15 ) ) ;
#97 = MECHANICAL_DESIGN_GEOMETRIC_PRESENTATION_REPRESENTATION (  '', ( #195 ), #261 ) ;
#98 = CARTESIAN_POINT ( 'NONE',  ( 2.950000000000052136, 0.000000000000000000, 14.99999999999998934 ) ) ;
#99 = EDGE_CURVE ( 'NONE', #187, #174, #141, .T. ) ;
#100 = ORIENTED_EDGE ( 'NONE', *, *, #124, .F. ) ;
#101 = APPLICATION_PROTOCOL_DEFINITION ( 'draft international standard', 'automotive_design', 1998, #105 ) ;
#102 = AXIS2_PLACEMENT_3D ( 'NONE', #69, #127, #11 ) ;
#103 = DIRECTION ( 'NONE',  ( -2.398081733190337496E-14, -1.000000000000000000, 0.000000000000000000 ) ) ;
#104 = SURFACE_STYLE_USAGE ( .BOTH. , #342 ) ;
#105 = APPLICATION_CONTEXT ( 'automotive_design' ) ;
#106 = EDGE_CURVE ( 'NONE', #78, #238, #194, .T. ) ;
#107 = COLOUR_RGB ( '',1.000000000000000000, 1.000000000000000000, 1.000000000000000000 ) ;
#108 = CARTESIAN_POINT ( 'NONE',  ( 1.990144363140586139E-13, -6.980486755139912911E-15, 57.00000000000000000 ) ) ;
#109 = ADVANCED_FACE ( 'NONE', ( #70 ), #41, .T. ) ;
#110 =( NAMED_UNIT ( * ) PLANE_ANGLE_UNIT ( ) SI_UNIT ( $, .RADIAN. ) );
#111 = FACE_OUTER_BOUND ( 'NONE', #245, .T. ) ;
#112 = ORIENTED_EDGE ( 'NONE', *, *, #201, .T. ) ;
#113 = VERTEX_POINT ( 'NONE', #270 ) ;
#114 = DIRECTION ( 'NONE',  ( -3.491481338843133750E-15, 1.224646799147345072E-16, -1.000000000000000000 ) ) ;
#115 = LINE ( 'NONE', #81, #280 ) ;
#116 = MANIFOLD_SOLID_BREP ( 'Corps-Déplacer/Copier1[2]', #28 ) ;
#117 = VERTEX_POINT ( 'NONE', #138 ) ;
#118 = STYLED_ITEM ( 'NONE', ( #333 ), #223 ) ;
#119 = AXIS2_PLACEMENT_3D ( 'NONE', #177, #68, #326 ) ;
#120 = CYLINDRICAL_SURFACE ( 'NONE', #156, 2.999999999999999112 ) ;
#121 = EDGE_LOOP ( 'NONE', ( #212, #252, #3, #186 ) ) ;
#122 = EDGE_LOOP ( 'NONE', ( #168, #215, #8, #205 ) ) ;
#123 = DIRECTION ( 'NONE',  ( 0.000000000000000000, 1.000000000000000000, 0.000000000000000000 ) ) ;
#124 = EDGE_CURVE ( 'NONE', #319, #117, #198, .T. ) ;
#125 = AXIS2_PLACEMENT_3D ( 'NONE', #192, #218, #243 ) ;
#126 = DIRECTION ( 'NONE',  ( 3.491481338843133355E-15, -0.000000000000000000, 1.000000000000000000 ) ) ;
#127 = DIRECTION ( 'NONE',  ( -3.491481338843133750E-15, 1.224646799147345072E-16, -1.000000000000000000 ) ) ;
#128 = DIRECTION ( 'NONE',  ( 3.491481338843133355E-15, -0.000000000000000000, 1.000000000000000000 ) ) ;
#129 = CARTESIAN_POINT ( 'NONE',  ( 1.969195475107526960E-13, -6.907007947191071191E-15, 56.39999999999999147 ) ) ;
#130 = UNCERTAINTY_MEASURE_WITH_UNIT (LENGTH_MEASURE( 1.000000000000000082E-05 ), #18, 'distance_accuracy_value', 'NONE');
#131 = AXIS2_PLACEMENT_3D ( 'NONE', #2, #288, #96 ) ;
#132 =( NAMED_UNIT ( * ) SI_UNIT ( $, .STERADIAN. ) SOLID_ANGLE_UNIT ( ) );
#133 = PRODUCT_DEFINITION ( 'UNKNOWN', '', #302, #332 ) ;
#134 = DIRECTION ( 'NONE',  ( 0.000000000000000000, 1.000000000000000000, 0.000000000000000000 ) ) ;
#135 = VECTOR ( 'NONE', #10, 1000.000000000000000 ) ;
#136 = CARTESIAN_POINT ( 'NONE',  ( 1.252561178193650578E-13, -3.000000000000006217, 56.39999999999999147 ) ) ;
#137 = CYLINDRICAL_SURFACE ( 'NONE', #175, 2.949999999999999289 ) ;
#138 = CARTESIAN_POINT ( 'NONE',  ( 1.248887237796209281E-13, 2.999999999999992450, 56.39999999999999147 ) ) ;
#139 = DIRECTION ( 'NONE',  ( 4.275831445896958607E-31, 1.000000000000000000, 1.224646799147353207E-16 ) ) ;
#140 = PRODUCT_DEFINITION_SHAPE ( 'NONE', 'NONE',  #133 ) ;
#141 = CIRCLE ( 'NONE', #20, 2.399999999999999023 ) ;
#142 = ORIENTED_EDGE ( 'NONE', *, *, #39, .F. ) ;
#143 = CARTESIAN_POINT ( 'NONE',  ( 5.297939248831440537E-14, 2.949999999999998845, 15.00000000000000000 ) ) ;
#144 = ORIENTED_EDGE ( 'NONE', *, *, #163, .T. ) ;
#145 = DIRECTION ( 'NONE',  ( 0.000000000000000000, -1.000000000000000000, 0.000000000000000000 ) ) ;
#146 = DIRECTION ( 'NONE',  ( 3.491481338843133355E-15, -0.000000000000000000, 1.000000000000000000 ) ) ;
#147 = DIRECTION ( 'NONE',  ( 1.000000000000000000, 0.000000000000000000, -3.491481338843132961E-15 ) ) ;
#148 =( NAMED_UNIT ( * ) PLANE_ANGLE_UNIT ( ) SI_UNIT ( $, .RADIAN. ) );
#149 = PLANE ( 'NONE',  #260 ) ;
#150 = STYLED_ITEM ( 'NONE', ( #339 ), #116 ) ;
#151 = CIRCLE ( 'NONE', #275, 2.999999999999996447 ) ;
#152 =( LENGTH_UNIT ( ) NAMED_UNIT ( * ) SI_UNIT ( .MILLI., .METRE. ) );
#153 = DIRECTION ( 'NONE',  ( -3.491481338843133750E-15, 1.224646799147345072E-16, -1.000000000000000000 ) ) ;
#154 = DIRECTION ( 'NONE',  ( 3.491481338843133355E-15, -1.224646799147353207E-16, 1.000000000000000000 ) ) ;
#155 = EDGE_LOOP ( 'NONE', ( #29, #35 ) ) ;
#156 = AXIS2_PLACEMENT_3D ( 'NONE', #90, #80, #139 ) ;
#157 =( NAMED_UNIT ( * ) PLANE_ANGLE_UNIT ( ) SI_UNIT ( $, .RADIAN. ) );
#158 = FACE_OUTER_BOUND ( 'NONE', #190, .T. ) ;
#159 = CARTESIAN_POINT ( 'NONE',  ( 5.237222008264700033E-14, -1.836970198721029589E-15, 15.00000000000000000 ) ) ;
#160 = SURFACE_STYLE_FILL_AREA ( #76 ) ;
#161 = PRODUCT ( '57000', '57000', '', ( #331 ) ) ;
#162 = AXIS2_PLACEMENT_3D ( 'NONE', #313, #318, #25 ) ;
#163 = EDGE_CURVE ( 'NONE', #306, #113, #48, .T. ) ;
#164 = CARTESIAN_POINT ( 'NONE',  ( 1.252561178193650578E-13, -2.999999999999998224, 15.13910427085457933 ) ) ;
#165 = ORIENTED_EDGE ( 'NONE', *, *, #229, .F. ) ;
#166 = EDGE_CURVE ( 'NONE', #171, #26, #213, .T. ) ;
#167 = CARTESIAN_POINT ( 'NONE',  ( -2.950000000000000178, 3.612708057484724144E-16, 1.029986994958724498E-14 ) ) ;
#168 = ORIENTED_EDGE ( 'NONE', *, *, #287, .T. ) ;
#169 = CARTESIAN_POINT ( 'NONE',  ( 5.237222008264700033E-14, -1.836970198721029589E-15, 15.00000000000000000 ) ) ;
#170 = EDGE_CURVE ( 'NONE', #78, #306, #293, .T. ) ;
#171 = VERTEX_POINT ( 'NONE', #272 ) ;
#172 = ADVANCED_FACE ( 'NONE', ( #64 ), #149, .T. ) ;
#173 = CARTESIAN_POINT ( 'NONE',  ( 1.990144363140586139E-13, -6.980486755139912911E-15, 57.00000000000000000 ) ) ;
#174 = VERTEX_POINT ( 'NONE', #222 ) ;
#175 = AXIS2_PLACEMENT_3D ( 'NONE', #255, #128, #16 ) ;
#176 = COLOUR_RGB ( '',1.000000000000000000, 1.000000000000000000, 1.000000000000000000 ) ;
#177 = CARTESIAN_POINT ( 'NONE',  ( 0.000000000000000000, 0.000000000000000000, 0.000000000000000000 ) ) ;
#178 = ADVANCED_FACE ( 'NONE', ( #94 ), #200, .T. ) ;
#179 = DIRECTION ( 'NONE',  ( 4.275831445896958607E-31, 1.000000000000000000, 1.224646799147353207E-16 ) ) ;
#180 = CONICAL_SURFACE ( 'NONE', #220, 2.950000000000000622, 0.3450620389298182378 ) ;
#181 = DIRECTION ( 'NONE',  ( 3.491481338843133355E-15, -0.000000000000000000, 1.000000000000000000 ) ) ;
#182 = AXIS2_PLACEMENT_3D ( 'NONE', #316, #5, #123 ) ;
#183 = EDGE_CURVE ( 'NONE', #187, #319, #210, .T. ) ;
#184 = ADVANCED_BREP_SHAPE_REPRESENTATION ( '57000', ( #223, #116, #119 ), #267 ) ;
#185 = EDGE_LOOP ( 'NONE', ( #325, #53, #112, #242 ) ) ;
#186 = ORIENTED_EDGE ( 'NONE', *, *, #201, .F. ) ;
#187 = VERTEX_POINT ( 'NONE', #277 ) ;
#188 = DIRECTION ( 'NONE',  ( 3.327098416510788793E-15, 0.3382550599108810618, 0.9410544694355827966 ) ) ;
#189 = ORIENTED_EDGE ( 'NONE', *, *, #323, .T. ) ;
#190 = EDGE_LOOP ( 'NONE', ( #237, #284, #324, #283 ) ) ;
#191 = PLANE ( 'NONE',  #92 ) ;
#192 = CARTESIAN_POINT ( 'NONE',  ( 0.000000000000000000, 0.000000000000000000, 0.000000000000000000 ) ) ;
#193 = ADVANCED_FACE ( 'NONE', ( #158 ), #180, .T. ) ;
#194 = CIRCLE ( 'NONE', #34, 2.950000000000000178 ) ;
#195 = STYLED_ITEM ( 'NONE', ( #309 ), #184 ) ;
#196 = CARTESIAN_POINT ( 'NONE',  ( 5.237222008264700033E-14, 0.000000000000000000, 15.00000000000000000 ) ) ;
#197 = EDGE_CURVE ( 'NONE', #174, #117, #233, .T. ) ;
#198 = CIRCLE ( 'NONE', #203, 2.999999999999999112 ) ;
#199 = AXIS2_PLACEMENT_3D ( 'NONE', #129, #153, #232 ) ;
#200 = CYLINDRICAL_SURFACE ( 'NONE', #304, 2.949999999999999289 ) ;
#201 = EDGE_CURVE ( 'NONE', #238, #113, #226, .T. ) ;
#202 = FILL_AREA_STYLE ('',( #17 ) ) ;
#203 = AXIS2_PLACEMENT_3D ( 'NONE', #38, #114, #103 ) ;
#204 = CARTESIAN_POINT ( 'NONE',  ( 1.969195475107526960E-13, -6.907007947191071191E-15, 56.39999999999999147 ) ) ;
#205 = ORIENTED_EDGE ( 'NONE', *, *, #240, .F. ) ;
#206 = DIRECTION ( 'NONE',  ( -2.382254525458737585E-15, -0.7071067811865416886, -0.7071067811865534569 ) ) ;
#207 = VECTOR ( 'NONE', #206, 1000.000000000000000 ) ;
#208 = CIRCLE ( 'NONE', #231, 2.949999999999998845 ) ;
#209 = DIRECTION ( 'NONE',  ( -3.491481338843133355E-15, 1.224646799147353207E-16, -1.000000000000000000 ) ) ;
#210 = LINE ( 'NONE', #334, #207 ) ;
#211 =( NAMED_UNIT ( * ) SI_UNIT ( $, .STERADIAN. ) SOLID_ANGLE_UNIT ( ) );
#212 = ORIENTED_EDGE ( 'NONE', *, *, #229, .T. ) ;
#213 = LINE ( 'NONE', #308, #274 ) ;
#214 = CARTESIAN_POINT ( 'NONE',  ( 5.273349088839547028E-14, 2.949999999999998845, 15.00000000000000000 ) ) ;
#215 = ORIENTED_EDGE ( 'NONE', *, *, #39, .T. ) ;
#216 = PRESENTATION_LAYER_ASSIGNMENT (  '', '', ( #195 ) ) ;
#217 = EDGE_LOOP ( 'NONE', ( #165, #56 ) ) ;
#218 = DIRECTION ( 'NONE',  ( 3.491481338843133355E-15, -0.000000000000000000, 1.000000000000000000 ) ) ;
#219 = FACE_OUTER_BOUND ( 'NONE', #217, .T. ) ;
#220 = AXIS2_PLACEMENT_3D ( 'NONE', #47, #154, #258 ) ;
#221 = ORIENTED_EDGE ( 'NONE', *, *, #166, .F. ) ;
#222 = CARTESIAN_POINT ( 'NONE',  ( 1.979669919124056423E-13, 2.399999999999991918, 57.00000000000000000 ) ) ;
#223 = MANIFOLD_SOLID_BREP ( 'Corps-Déplacer/Copier1[1]', #311 ) ;
#224 = CARTESIAN_POINT ( 'NONE',  ( 1.990144363140586139E-13, -6.980486755139912911E-15, 57.00000000000000000 ) ) ;
#225 = APPLICATION_CONTEXT ( 'automotive_design' ) ;
#226 = LINE ( 'NONE', #98, #6 ) ;
#227 = EDGE_CURVE ( 'NONE', #26, #303, #74, .T. ) ;
#228 = FILL_AREA_STYLE ('',( #249 ) ) ;
#229 = EDGE_CURVE ( 'NONE', #238, #78, #292, .T. ) ;
#230 = FACE_OUTER_BOUND ( 'NONE', #86, .T. ) ;
#231 = AXIS2_PLACEMENT_3D ( 'NONE', #321, #89, #1 ) ;
#232 = DIRECTION ( 'NONE',  ( 0.000000000000000000, 1.000000000000000000, 0.000000000000000000 ) ) ;
#233 = LINE ( 'NONE', #278, #253 ) ;
#234 = EDGE_CURVE ( 'NONE', #174, #187, #271, .T. ) ;
#235 = SURFACE_STYLE_USAGE ( .BOTH. , #54 ) ;
#236 = CARTESIAN_POINT ( 'NONE',  ( 5.285790004848914134E-14, -1.854005558726008508E-15, 15.13910427085457933 ) ) ;
#237 = ORIENTED_EDGE ( 'NONE', *, *, #66, .F. ) ;
#238 = VERTEX_POINT ( 'NONE', #290 ) ;
#239 = FACE_OUTER_BOUND ( 'NONE', #7, .T. ) ;
#240 = EDGE_CURVE ( 'NONE', #117, #303, #268, .T. ) ;
#241 = DIRECTION ( 'NONE',  ( 3.491481338843133355E-15, -1.224646799147353207E-16, 1.000000000000000000 ) ) ;
#242 = ORIENTED_EDGE ( 'NONE', *, *, #163, .F. ) ;
#243 = DIRECTION ( 'NONE',  ( 1.000000000000000000, 0.000000000000000000, -3.491481338843132961E-15 ) ) ;
#244 = ORIENTED_EDGE ( 'NONE', *, *, #99, .F. ) ;
#245 = EDGE_LOOP ( 'NONE', ( #51, #59, #49, #221 ) ) ;
#246 = FACE_OUTER_BOUND ( 'NONE', #317, .T. ) ;
#247 = CONICAL_SURFACE ( 'NONE', #199, 2.999999999999999112, 0.7853981633974400633 ) ;
#248 = DIRECTION ( 'NONE',  ( 3.491481338843133355E-15, -0.000000000000000000, 1.000000000000000000 ) ) ;
#249 = FILL_AREA_STYLE_COLOUR ( '', #107 ) ;
#250 = CARTESIAN_POINT ( 'NONE',  ( 1.282749433769087232E-30, 2.999999999999999112, 3.673940397442058882E-16 ) ) ;
#251 = CARTESIAN_POINT ( 'NONE',  ( 5.237222008264700033E-14, 2.949999999999998845, 15.00000000000000000 ) ) ;
#252 = ORIENTED_EDGE ( 'NONE', *, *, #170, .T. ) ;
#253 = VECTOR ( 'NONE', #276, 1000.000000000000114 ) ;
#254 = EDGE_CURVE ( 'NONE', #335, #171, #79, .T. ) ;
#255 = CARTESIAN_POINT ( 'NONE',  ( 5.237222008264700033E-14, 0.000000000000000000, 15.00000000000000000 ) ) ;
#256 = SURFACE_STYLE_FILL_AREA ( #202 ) ;
#257 = UNCERTAINTY_MEASURE_WITH_UNIT (LENGTH_MEASURE( 1.000000000000000082E-05 ), #27, 'distance_accuracy_value', 'NONE');
#258 = DIRECTION ( 'NONE',  ( 0.000000000000000000, -1.000000000000000000, 0.000000000000000000 ) ) ;
#259 = AXIS2_PLACEMENT_3D ( 'NONE', #12, #44, #62 ) ;
#260 = AXIS2_PLACEMENT_3D ( 'NONE', #251, #15, #179 ) ;
#261 =( GEOMETRIC_REPRESENTATION_CONTEXT ( 3 ) GLOBAL_UNCERTAINTY_ASSIGNED_CONTEXT ( ( #257 ) ) GLOBAL_UNIT_ASSIGNED_CONTEXT ( ( #27, #294, #132 ) ) REPRESENTATION_CONTEXT ( 'NONE', 'WORKASPACE' ) );
#262 = DIRECTION ( 'NONE',  ( -3.491481338843133355E-15, 1.224646799147353207E-16, -1.000000000000000000 ) ) ;
#263 = PLANE ( 'NONE',  #162 ) ;
#264 = ORIENTED_EDGE ( 'NONE', *, *, #183, .F. ) ;
#265 = DIRECTION ( 'NONE',  ( 0.000000000000000000, -1.000000000000000000, 0.000000000000000000 ) ) ;
#266 = VECTOR ( 'NONE', #146, 1000.000000000000000 ) ;
#267 =( GEOMETRIC_REPRESENTATION_CONTEXT ( 3 ) GLOBAL_UNCERTAINTY_ASSIGNED_CONTEXT ( ( #343 ) ) GLOBAL_UNIT_ASSIGNED_CONTEXT ( ( #45, #110, #341 ) ) REPRESENTATION_CONTEXT ( 'NONE', 'WORKASPACE' ) );
#268 = LINE ( 'NONE', #250, #135 ) ;
#269 = DIRECTION ( 'NONE',  ( 3.491481338843133355E-15, -0.000000000000000000, 1.000000000000000000 ) ) ;
#270 = CARTESIAN_POINT ( 'NONE',  ( 2.950000000000051692, 0.000000000000000000, 14.99999999999998934 ) ) ;
#271 = CIRCLE ( 'NONE', #327, 2.399999999999999023 ) ;
#272 = CARTESIAN_POINT ( 'NONE',  ( 5.261506006556806768E-14, -2.950000000000002398, 15.00000000000000000 ) ) ;
#273 = PRODUCT_RELATED_PRODUCT_CATEGORY ( 'part', '', ( #161 ) ) ;
#274 = VECTOR ( 'NONE', #77, 1000.000000000000000 ) ;
#275 = AXIS2_PLACEMENT_3D ( 'NONE', #236, #262, #50 ) ;
#276 = DIRECTION ( 'NONE',  ( -2.468850131082285065E-15, 0.7071067811865417996, -0.7071067811865531239 ) ) ;
#277 = CARTESIAN_POINT ( 'NONE',  ( 1.982976465481754348E-13, -2.400000000000005684, 57.00000000000000000 ) ) ;
#278 = CARTESIAN_POINT ( 'NONE',  ( 1.969195475107526960E-13, 2.999999999999992450, 56.39999999999999147 ) ) ;
#279 = ORIENTED_EDGE ( 'NONE', *, *, #183, .T. ) ;
#280 = VECTOR ( 'NONE', #52, 1000.000000000000000 ) ;
#281 = ADVANCED_FACE ( 'NONE', ( #111 ), #88, .T. ) ;
#282 = CARTESIAN_POINT ( 'NONE',  ( 5.285790004848914134E-14, 2.999999999999994671, 15.13910427085457933 ) ) ;
#283 = ORIENTED_EDGE ( 'NONE', *, *, #227, .T. ) ;
#284 = ORIENTED_EDGE ( 'NONE', *, *, #310, .F. ) ;
#285 = ADVANCED_FACE ( 'NONE', ( #239 ), #33, .F. ) ;
#286 = ORIENTED_EDGE ( 'NONE', *, *, #197, .T. ) ;
#287 = EDGE_CURVE ( 'NONE', #117, #319, #43, .T. ) ;
#288 = DIRECTION ( 'NONE',  ( -3.491481338843133355E-15, 0.000000000000000000, -1.000000000000000000 ) ) ;
#289 = AXIS2_PLACEMENT_3D ( 'NONE', #204, #72, #291 ) ;
#290 = CARTESIAN_POINT ( 'NONE',  ( 2.950000000000000178, 0.000000000000000000, -1.029986994958724340E-14 ) ) ;
#291 = DIRECTION ( 'NONE',  ( 0.000000000000000000, 1.000000000000000000, 0.000000000000000000 ) ) ;
#292 = CIRCLE ( 'NONE', #125, 2.950000000000000178 ) ;
#293 = LINE ( 'NONE', #67, #266 ) ;
#294 =( NAMED_UNIT ( * ) PLANE_ANGLE_UNIT ( ) SI_UNIT ( $, .RADIAN. ) );
#295 =( NAMED_UNIT ( * ) SI_UNIT ( $, .STERADIAN. ) SOLID_ANGLE_UNIT ( ) );
#296 = FACE_OUTER_BOUND ( 'NONE', #75, .T. ) ;
#297 = DIRECTION ( 'NONE',  ( 3.491481338843133355E-15, -1.224646799147353207E-16, 1.000000000000000000 ) ) ;
#298 = APPLICATION_PROTOCOL_DEFINITION ( 'draft international standard', 'automotive_design', 1998, #225 ) ;
#299 = ADVANCED_FACE ( 'NONE', ( #230 ), #322, .T. ) ;
#300 = SURFACE_SIDE_STYLE ('',( #256 ) ) ;
#301 = PRESENTATION_LAYER_ASSIGNMENT (  '', '', ( #118 ) ) ;
#302 = PRODUCT_DEFINITION_FORMATION_WITH_SPECIFIED_SOURCE ( 'ANY', '', #161, .NOT_KNOWN. ) ;
#303 = VERTEX_POINT ( 'NONE', #282 ) ;
#304 = AXIS2_PLACEMENT_3D ( 'NONE', #196, #248, #9 ) ;
#305 = EDGE_CURVE ( 'NONE', #303, #26, #151, .T. ) ;
#306 = VERTEX_POINT ( 'NONE', #24 ) ;
#307 = FILL_AREA_STYLE_COLOUR ( '', #176 ) ;
#308 = CARTESIAN_POINT ( 'NONE',  ( 5.237222008264700033E-14, -2.950000000000002398, 15.00000000000000000 ) ) ;
#309 = PRESENTATION_STYLE_ASSIGNMENT (( #104 ) ) ;
#310 = EDGE_CURVE ( 'NONE', #171, #335, #329, .T. ) ;
#311 = CLOSED_SHELL ( 'NONE', ( #337, #281, #109, #172, #36, #336, #193, #299 ) ) ;
#312 = AXIS2_PLACEMENT_3D ( 'NONE', #159, #209, #134 ) ;
#313 = CARTESIAN_POINT ( 'NONE',  ( 3.099977798275295822E-31, 2.950000000000000178, 8.878689293818313279E-17 ) ) ;
#314 = ORIENTED_EDGE ( 'NONE', *, *, #254, .T. ) ;
#315 = EDGE_LOOP ( 'NONE', ( #91, #314 ) ) ;
#316 = CARTESIAN_POINT ( 'NONE',  ( 5.237222008264700033E-14, -1.836970198721029589E-15, 15.00000000000000000 ) ) ;
#317 = EDGE_LOOP ( 'NONE', ( #142, #330, #84, #40 ) ) ;
#318 = DIRECTION ( 'NONE',  ( 3.491481338843133355E-15, -0.000000000000000000, 1.000000000000000000 ) ) ;
#319 = VERTEX_POINT ( 'NONE', #136 ) ;
#320 = VECTOR ( 'NONE', #188, 1000.000000000000227 ) ;
#321 = CARTESIAN_POINT ( 'NONE',  ( 5.237222008264700033E-14, 0.000000000000000000, 15.00000000000000000 ) ) ;
#322 = CONICAL_SURFACE ( 'NONE', #289, 2.999999999999999112, 0.7853981633974400633 ) ;
#323 = EDGE_CURVE ( 'NONE', #113, #306, #208, .T. ) ;
#324 = ORIENTED_EDGE ( 'NONE', *, *, #166, .T. ) ;
#325 = ORIENTED_EDGE ( 'NONE', *, *, #170, .F. ) ;
#326 = DIRECTION ( 'NONE',  ( 1.000000000000000000, 0.000000000000000000, 0.000000000000000000 ) ) ;
#327 = AXIS2_PLACEMENT_3D ( 'NONE', #224, #241, #145 ) ;
#328 = CARTESIAN_POINT ( 'NONE',  ( 5.285790004848914134E-14, -1.854005558726008508E-15, 15.13910427085457933 ) ) ;
#329 = CIRCLE ( 'NONE', #312, 2.950000000000000622 ) ;
#330 = ORIENTED_EDGE ( 'NONE', *, *, #124, .T. ) ;
#331 = PRODUCT_CONTEXT ( 'NONE', #225, 'mechanical' ) ;
#332 = PRODUCT_DEFINITION_CONTEXT ( 'detailed design', #105, 'design' ) ;
#333 = PRESENTATION_STYLE_ASSIGNMENT (( #46 ) ) ;
#334 = CARTESIAN_POINT ( 'NONE',  ( 1.972869415504969014E-13, -3.000000000000006217, 56.39999999999999147 ) ) ;
#335 = VERTEX_POINT ( 'NONE', #143 ) ;
#336 = ADVANCED_FACE ( 'NONE', ( #246 ), #120, .T. ) ;
#337 = ADVANCED_FACE ( 'NONE', ( #296 ), #247, .T. ) ;
#338 = PRESENTATION_LAYER_ASSIGNMENT (  '', '', ( #150 ) ) ;
#339 = PRESENTATION_STYLE_ASSIGNMENT (( #235 ) ) ;
#340 = AXIS2_PLACEMENT_3D ( 'NONE', #328, #37, #61 ) ;
#341 =( NAMED_UNIT ( * ) SI_UNIT ( $, .STERADIAN. ) SOLID_ANGLE_UNIT ( ) );
#342 = SURFACE_SIDE_STYLE ('',( #160 ) ) ;
#343 = UNCERTAINTY_MEASURE_WITH_UNIT (LENGTH_MEASURE( 1.000000000000000082E-05 ), #45, 'distance_accuracy_value', 'NONE');
ENDSEC;
END-ISO-10303-21;
