ISO-10303-21;
HEADER;
FILE_DESCRIPTION (( 'STEP AP214' ),
    '1' );
FILE_NAME ('56999.step',
    '2024-04-04T09:56:04',
    ( '' ),
    ( '' ),
    'SwSTEP 2.0',
    'SolidWorks 2022',
    '' );
FILE_SCHEMA (( 'AUTOMOTIVE_DESIGN' ));
ENDSEC;

DATA;
#1 = DIRECTION ( 'NONE',  ( 0.000000000000000000, 1.000000000000000000, 0.000000000000000000 ) ) ;
#2 = EDGE_CURVE ( 'NONE', #51, #206, #38, .T. ) ;
#3 =( NAMED_UNIT ( * ) SI_UNIT ( $, .STERADIAN. ) SOLID_ANGLE_UNIT ( ) );
#4 = SURFACE_SIDE_STYLE ('',( #247 ) ) ;
#5 = FACE_OUTER_BOUND ( 'NONE', #170, .T. ) ;
#6 = CYLINDRICAL_SURFACE ( 'NONE', #330, 1.499999999999999112 ) ;
#7 = CIRCLE ( 'NONE', #282, 1.499999999999999556 ) ;
#8 = PRESENTATION_LAYER_ASSIGNMENT (  '', '', ( #61 ) ) ;
#9 = VERTEX_POINT ( 'NONE', #188 ) ;
#10 = CARTESIAN_POINT ( 'NONE',  ( 8.707989055557308985E-14, -1.999999999999997113, 8.141042708545896289 ) ) ;
#11 = EDGE_CURVE ( 'NONE', #260, #296, #105, .T. ) ;
#12 = CARTESIAN_POINT ( 'NONE',  ( 0.000000000000000000, 0.000000000000000000, 0.000000000000000000 ) ) ;
#13 = DIRECTION ( 'NONE',  ( 3.491481338843133355E-15, -0.000000000000000000, 1.000000000000000000 ) ) ;
#14 = ORIENTED_EDGE ( 'NONE', *, *, #233, .T. ) ;
#15 = CARTESIAN_POINT ( 'NONE',  ( -1.499999999999975575, 1.836970198721028948E-16, 6.750000000000005329 ) ) ;
#16 = MECHANICAL_DESIGN_GEOMETRIC_PRESENTATION_REPRESENTATION (  '', ( #106 ), #60 ) ;
#17 = SURFACE_STYLE_FILL_AREA ( #139 ) ;
#18 = LINE ( 'NONE', #15, #305 ) ;
#19 =( NAMED_UNIT ( * ) SI_UNIT ( $, .STERADIAN. ) SOLID_ANGLE_UNIT ( ) );
#20 = LINE ( 'NONE', #308, #85 ) ;
#21 = ORIENTED_EDGE ( 'NONE', *, *, #71, .F. ) ;
#22 =( LENGTH_UNIT ( ) NAMED_UNIT ( * ) SI_UNIT ( .MILLI., .METRE. ) );
#23 = EDGE_CURVE ( 'NONE', #251, #324, #185, .T. ) ;
#24 = DIRECTION ( 'NONE',  ( -3.491481338843133355E-15, 1.224646799147353454E-16, -1.000000000000000000 ) ) ;
#25 = CARTESIAN_POINT ( 'NONE',  ( 1.452456236958743476E-13, -5.094530684452989894E-15, 41.60000000000000142 ) ) ;
#26 = EDGE_LOOP ( 'NONE', ( #212, #21, #307, #79 ) ) ;
#27 = CARTESIAN_POINT ( 'NONE',  ( 2.842429869561295464E-14, -9.969901894742632755E-16, 8.141042708545896289 ) ) ;
#28 = SURFACE_STYLE_USAGE ( .BOTH. , #135 ) ;
#29 = AXIS2_PLACEMENT_3D ( 'NONE', #334, #327, #202 ) ;
#30 = ORIENTED_EDGE ( 'NONE', *, *, #331, .T. ) ;
#31 = EDGE_LOOP ( 'NONE', ( #199, #14, #164, #263 ) ) ;
#32 = FILL_AREA_STYLE ('',( #274 ) ) ;
#33 = AXIS2_PLACEMENT_3D ( 'NONE', #209, #163, #137 ) ;
#34 = DIRECTION ( 'NONE',  ( -3.491481338843133355E-15, 1.224646799147371450E-16, -1.000000000000000000 ) ) ;
#35 = PRODUCT_CONTEXT ( 'NONE', #271, 'mechanical' ) ;
#36 = ADVANCED_FACE ( 'NONE', ( #294 ), #54, .T. ) ;
#37 = CARTESIAN_POINT ( 'NONE',  ( 2.356749903719115015E-14, 0.000000000000000000, 6.750000000000000000 ) ) ;
#38 = CIRCLE ( 'NONE', #232, 1.999999999999996225 ) ;
#39 = CARTESIAN_POINT ( 'NONE',  ( 2.356749903719115015E-14, -8.266365894244636305E-16, 6.750000000000000000 ) ) ;
#40 =( GEOMETRIC_REPRESENTATION_CONTEXT ( 3 ) GLOBAL_UNCERTAINTY_ASSIGNED_CONTEXT ( ( #113 ) ) GLOBAL_UNIT_ASSIGNED_CONTEXT ( ( #74, #230, #205 ) ) REPRESENTATION_CONTEXT ( 'NONE', 'WORKASPACE' ) );
#41 = APPLICATION_CONTEXT ( 'automotive_design' ) ;
#42 = EDGE_LOOP ( 'NONE', ( #288, #239, #214, #187 ) ) ;
#43 = ORIENTED_EDGE ( 'NONE', *, *, #336, .F. ) ;
#44 = FACE_OUTER_BOUND ( 'NONE', #211, .T. ) ;
#45 = VECTOR ( 'NONE', #184, 1000.000000000000000 ) ;
#46 = CARTESIAN_POINT ( 'NONE',  ( 8.707989055557306461E-14, -2.000000000000003553, 41.60000000000000142 ) ) ;
#47 = EDGE_LOOP ( 'NONE', ( #96, #151, #215, #102 ) ) ;
#48 = FACE_OUTER_BOUND ( 'NONE', #125, .T. ) ;
#49 = CIRCLE ( 'NONE', #97, 1.499999999999999556 ) ;
#50 = CIRCLE ( 'NONE', #297, 1.999999999999998224 ) ;
#51 = VERTEX_POINT ( 'NONE', #10 ) ;
#52 = DIRECTION ( 'NONE',  ( 0.000000000000000000, 1.000000000000000000, 0.000000000000000000 ) ) ;
#53 = FACE_OUTER_BOUND ( 'NONE', #158, .T. ) ;
#54 = CYLINDRICAL_SURFACE ( 'NONE', #245, 1.999999999999998224 ) ;
#55 = CARTESIAN_POINT ( 'NONE',  ( 0.000000000000000000, 0.000000000000000000, 0.000000000000000000 ) ) ;
#56 = DIRECTION ( 'NONE',  ( 0.000000000000000000, -1.000000000000000000, 0.000000000000000000 ) ) ;
#57 = AXIS2_PLACEMENT_3D ( 'NONE', #295, #132, #56 ) ;
#58 = DIRECTION ( 'NONE',  ( -3.491481338843133355E-15, 1.224646799147353454E-16, -1.000000000000000000 ) ) ;
#59 = DIRECTION ( 'NONE',  ( 1.000000000000000000, 0.000000000000000000, 0.000000000000000000 ) ) ;
#60 =( GEOMETRIC_REPRESENTATION_CONTEXT ( 3 ) GLOBAL_UNCERTAINTY_ASSIGNED_CONTEXT ( ( #237 ) ) GLOBAL_UNIT_ASSIGNED_CONTEXT ( ( #22, #160, #19 ) ) REPRESENTATION_CONTEXT ( 'NONE', 'WORKASPACE' ) );
#61 = STYLED_ITEM ( 'NONE', ( #342 ), #178 ) ;
#62 = DIRECTION ( 'NONE',  ( -4.275831445896959482E-31, -1.000000000000000000, -1.224646799147353454E-16 ) ) ;
#63 = CARTESIAN_POINT ( 'NONE',  ( 1.452456236958743476E-13, -5.094530684452989894E-15, 41.60000000000000142 ) ) ;
#64 = FACE_OUTER_BOUND ( 'NONE', #31, .T. ) ;
#65 = PLANE ( 'NONE',  #157 ) ;
#66 = DIRECTION ( 'NONE',  ( 1.000000000000000000, 0.000000000000000000, -3.469446951953616161E-15 ) ) ;
#67 = AXIS2_PLACEMENT_3D ( 'NONE', #257, #303, #127 ) ;
#68 = CARTESIAN_POINT ( 'NONE',  ( 2.375119605706324971E-14, 1.499999999999998668, 6.750000000000000000 ) ) ;
#69 = FACE_OUTER_BOUND ( 'NONE', #47, .T. ) ;
#70 =( NAMED_UNIT ( * ) SI_UNIT ( $, .STERADIAN. ) SOLID_ANGLE_UNIT ( ) );
#71 = EDGE_CURVE ( 'NONE', #145, #241, #49, .T. ) ;
#72 = CARTESIAN_POINT ( 'NONE',  ( 2.599589886640205397E-14, -1.500000000000000444, 6.750000000000000000 ) ) ;
#73 = DIRECTION ( 'NONE',  ( 3.491481338843133355E-15, -0.000000000000000000, 1.000000000000000000 ) ) ;
#74 =( LENGTH_UNIT ( ) NAMED_UNIT ( * ) SI_UNIT ( .MILLI., .METRE. ) );
#75 = CARTESIAN_POINT ( 'NONE',  ( 2.356749903719115015E-14, 1.499999999999998668, 6.750000000000000000 ) ) ;
#76 = CONICAL_SURFACE ( 'NONE', #254, 1.499999999999999556, 0.3450620389298191815 ) ;
#77 =( LENGTH_UNIT ( ) NAMED_UNIT ( * ) SI_UNIT ( .MILLI., .METRE. ) );
#78 = ADVANCED_FACE ( 'NONE', ( #175 ), #275, .T. ) ;
#79 = ORIENTED_EDGE ( 'NONE', *, *, #2, .T. ) ;
#80 = AXIS2_PLACEMENT_3D ( 'NONE', #12, #73, #179 ) ;
#81 = DIRECTION ( 'NONE',  ( -3.491481338843133355E-15, 1.224646799147371450E-16, -1.000000000000000000 ) ) ;
#82 = PRODUCT_DEFINITION_CONTEXT ( 'detailed design', #41, 'design' ) ;
#83 = CARTESIAN_POINT ( 'NONE',  ( 1.500000000000022871, 0.000000000000000000, 6.749999999999994671 ) ) ;
#84 = AXIS2_PLACEMENT_3D ( 'NONE', #293, #192, #299 ) ;
#85 = VECTOR ( 'NONE', #227, 1000.000000000000000 ) ;
#86 = DIRECTION ( 'NONE',  ( 3.019806626980425790E-14, -1.000000000000000000, 0.000000000000000000 ) ) ;
#87 = ADVANCED_FACE ( 'NONE', ( #5 ), #321, .T. ) ;
#88 = PRESENTATION_STYLE_ASSIGNMENT (( #94 ) ) ;
#89 = CARTESIAN_POINT ( 'NONE',  ( 1.459439199636429616E-13, 1.599999999999988542, 42.00000000000000000 ) ) ;
#90 = CARTESIAN_POINT ( 'NONE',  ( 2.356749903719115015E-14, -8.266365894244636305E-16, 6.750000000000000000 ) ) ;
#91 = ORIENTED_EDGE ( 'NONE', *, *, #23, .T. ) ;
#92 = CIRCLE ( 'NONE', #186, 1.599999999999993872 ) ;
#93 = CARTESIAN_POINT ( 'NONE',  ( 1.499999999999999778, 0.000000000000000000, -5.237222008264699244E-15 ) ) ;
#94 = SURFACE_STYLE_USAGE ( .BOTH. , #124 ) ;
#95 = EDGE_LOOP ( 'NONE', ( #316, #290 ) ) ;
#96 = ORIENTED_EDGE ( 'NONE', *, *, #103, .T. ) ;
#97 = AXIS2_PLACEMENT_3D ( 'NONE', #90, #58, #252 ) ;
#98 =( GEOMETRIC_REPRESENTATION_CONTEXT ( 3 ) GLOBAL_UNCERTAINTY_ASSIGNED_CONTEXT ( ( #231 ) ) GLOBAL_UNIT_ASSIGNED_CONTEXT ( ( #244, #267, #3 ) ) REPRESENTATION_CONTEXT ( 'NONE', 'WORKASPACE' ) );
#99 = ADVANCED_FACE ( 'NONE', ( #323 ), #222, .T. ) ;
#100 = CARTESIAN_POINT ( 'NONE',  ( 1.454905530557038179E-13, -2.000000000000003553, 41.60000000000000142 ) ) ;
#101 = DIRECTION ( 'NONE',  ( 3.491481338843133355E-15, -0.000000000000000000, 1.000000000000000000 ) ) ;
#102 = ORIENTED_EDGE ( 'NONE', *, *, #340, .F. ) ;
#103 = EDGE_CURVE ( 'NONE', #129, #313, #291, .T. ) ;
#104 = ADVANCED_FACE ( 'NONE', ( #269 ), #76, .T. ) ;
#105 = CIRCLE ( 'NONE', #289, 1.999999999999998224 ) ;
#106 = STYLED_ITEM ( 'NONE', ( #88 ), #121 ) ;
#107 = DIRECTION ( 'NONE',  ( 3.491481338843133355E-15, -1.224646799147353454E-16, 1.000000000000000000 ) ) ;
#108 = ORIENTED_EDGE ( 'NONE', *, *, #249, .T. ) ;
#109 = DIRECTION ( 'NONE',  ( 3.491481338843133355E-15, -0.000000000000000000, 1.000000000000000000 ) ) ;
#110 = CARTESIAN_POINT ( 'NONE',  ( 1.452456236958743476E-13, -5.094530684452989894E-15, 41.60000000000000142 ) ) ;
#111 = CARTESIAN_POINT ( 'NONE',  ( 0.000000000000000000, 0.000000000000000000, 0.000000000000000000 ) ) ;
#112 = CIRCLE ( 'NONE', #116, 1.499999999999998668 ) ;
#113 = UNCERTAINTY_MEASURE_WITH_UNIT (LENGTH_MEASURE( 1.000000000000000082E-05 ), #74, 'distance_accuracy_value', 'NONE');
#114 = DIRECTION ( 'NONE',  ( -2.930988785010413267E-14, -1.000000000000000000, 0.000000000000000000 ) ) ;
#115 = ADVANCED_FACE ( 'NONE', ( #53 ), #338, .T. ) ;
#116 = AXIS2_PLACEMENT_3D ( 'NONE', #200, #101, #197 ) ;
#117 = SURFACE_STYLE_USAGE ( .BOTH. , #4 ) ;
#118 = ORIENTED_EDGE ( 'NONE', *, *, #134, .F. ) ;
#119 = CARTESIAN_POINT ( 'NONE',  ( 0.000000000000000000, 0.000000000000000000, 0.000000000000000000 ) ) ;
#120 = DIRECTION ( 'NONE',  ( -3.491481338843133355E-15, 1.224646799147353454E-16, -1.000000000000000000 ) ) ;
#121 = MANIFOLD_SOLID_BREP ( 'Corps-Déplacer/Copier1[2]', #280 ) ;
#122 = DIRECTION ( 'NONE',  ( 3.491481338843133355E-15, -1.224646799147353454E-16, 1.000000000000000000 ) ) ;
#123 = CONICAL_SURFACE ( 'NONE', #265, 1.499999999999999556, 0.3450620389298191815 ) ;
#124 = SURFACE_SIDE_STYLE ('',( #253 ) ) ;
#125 = EDGE_LOOP ( 'NONE', ( #91, #182 ) ) ;
#126 = CARTESIAN_POINT ( 'NONE',  ( 1.466422162314116009E-13, -5.143516556418883322E-15, 42.00000000000000000 ) ) ;
#127 = DIRECTION ( 'NONE',  ( -1.000000000000000000, 0.000000000000000000, 3.491481338843133355E-15 ) ) ;
#128 = EDGE_CURVE ( 'NONE', #260, #206, #20, .T. ) ;
#129 = VERTEX_POINT ( 'NONE', #93 ) ;
#130 = DIRECTION ( 'NONE',  ( -2.468850131082264555E-15, 0.7071067811865479058, -0.7071067811865472397 ) ) ;
#131 = DIRECTION ( 'NONE',  ( 3.491481338843133355E-15, -0.000000000000000000, 1.000000000000000000 ) ) ;
#132 = DIRECTION ( 'NONE',  ( 3.491481338843133355E-15, -1.224646799147353454E-16, 1.000000000000000000 ) ) ;
#133 = VECTOR ( 'NONE', #219, 1000.000000000000000 ) ;
#134 = EDGE_CURVE ( 'NONE', #206, #51, #148, .T. ) ;
#135 = SURFACE_SIDE_STYLE ('',( #17 ) ) ;
#136 = DIRECTION ( 'NONE',  ( 4.275831445896958607E-31, 1.000000000000000000, 1.224646799147353454E-16 ) ) ;
#137 = DIRECTION ( 'NONE',  ( 1.000000000000000000, 0.000000000000000000, -3.491481338843133355E-15 ) ) ;
#138 = VECTOR ( 'NONE', #283, 1000.000000000000000 ) ;
#139 = FILL_AREA_STYLE ('',( #165 ) ) ;
#140 = CARTESIAN_POINT ( 'NONE',  ( 2.356749903719115015E-14, -8.266365894244636305E-16, 6.750000000000000000 ) ) ;
#141 = EDGE_CURVE ( 'NONE', #9, #296, #153, .T. ) ;
#142 = LINE ( 'NONE', #194, #149 ) ;
#143 = FILL_AREA_STYLE_COLOUR ( '', #300 ) ;
#144 = APPLICATION_PROTOCOL_DEFINITION ( 'draft international standard', 'automotive_design', 1998, #41 ) ;
#145 = VERTEX_POINT ( 'NONE', #72 ) ;
#146 = FILL_AREA_STYLE ('',( #143 ) ) ;
#147 = DIRECTION ( 'NONE',  ( 4.275831445896958607E-31, 1.000000000000000000, 1.224646799147353454E-16 ) ) ;
#148 = CIRCLE ( 'NONE', #29, 1.999999999999996225 ) ;
#149 = VECTOR ( 'NONE', #120, 1000.000000000000000 ) ;
#150 = DIRECTION ( 'NONE',  ( 0.000000000000000000, -1.000000000000000000, 0.000000000000000000 ) ) ;
#151 = ORIENTED_EDGE ( 'NONE', *, *, #268, .T. ) ;
#152 = DIRECTION ( 'NONE',  ( 4.275831445896959482E-31, 1.000000000000000000, 1.224646799147353454E-16 ) ) ;
#153 = LINE ( 'NONE', #100, #45 ) ;
#154 = CARTESIAN_POINT ( 'NONE',  ( 8.683496119574365742E-14, 1.999999999999993117, 41.60000000000000142 ) ) ;
#155 = EDGE_LOOP ( 'NONE', ( #266, #273, #326, #43 ) ) ;
#156 = LINE ( 'NONE', #311, #198 ) ;
#157 = AXIS2_PLACEMENT_3D ( 'NONE', #75, #309, #152 ) ;
#158 = EDGE_LOOP ( 'NONE', ( #332, #284, #319, #341 ) ) ;
#159 = CARTESIAN_POINT ( 'NONE',  ( -1.499999999999999778, 1.836970198721043986E-16, 5.237222008264698455E-15 ) ) ;
#160 =( NAMED_UNIT ( * ) PLANE_ANGLE_UNIT ( ) SI_UNIT ( $, .RADIAN. ) );
#161 = EDGE_LOOP ( 'NONE', ( #190, #30, #118, #333 ) ) ;
#162 = AXIS2_PLACEMENT_3D ( 'NONE', #236, #109, #189 ) ;
#163 = DIRECTION ( 'NONE',  ( 3.491481338843133355E-15, -0.000000000000000000, 1.000000000000000000 ) ) ;
#164 = ORIENTED_EDGE ( 'NONE', *, *, #340, .T. ) ;
#165 = FILL_AREA_STYLE_COLOUR ( '', #235 ) ;
#166 = PRODUCT_DEFINITION_SHAPE ( 'NONE', 'NONE',  #195 ) ;
#167 = PRODUCT_RELATED_PRODUCT_CATEGORY ( 'part', '', ( #272 ) ) ;
#168 = MECHANICAL_DESIGN_GEOMETRIC_PRESENTATION_REPRESENTATION (  '', ( #176 ), #40 ) ;
#169 = EDGE_CURVE ( 'NONE', #145, #51, #156, .T. ) ;
#170 = EDGE_LOOP ( 'NONE', ( #335, #259 ) ) ;
#171 = ORIENTED_EDGE ( 'NONE', *, *, #71, .T. ) ;
#172 = PRESENTATION_LAYER_ASSIGNMENT (  '', '', ( #106 ) ) ;
#173 = CARTESIAN_POINT ( 'NONE',  ( 1.452456236958743476E-13, -5.094530684452989894E-15, 41.60000000000000142 ) ) ;
#174 = CARTESIAN_POINT ( 'NONE',  ( 2.356749903719115015E-14, 0.000000000000000000, 6.750000000000000000 ) ) ;
#175 = FACE_OUTER_BOUND ( 'NONE', #155, .T. ) ;
#176 = STYLED_ITEM ( 'NONE', ( #218 ), #224 ) ;
#177 =( NAMED_UNIT ( * ) PLANE_ANGLE_UNIT ( ) SI_UNIT ( $, .RADIAN. ) );
#178 = ADVANCED_BREP_SHAPE_REPRESENTATION ( '56999', ( #224, #121, #208 ), #98 ) ;
#179 = DIRECTION ( 'NONE',  ( 1.000000000000000000, 0.000000000000000000, -3.491481338843133355E-15 ) ) ;
#180 = AXIS2_PLACEMENT_3D ( 'NONE', #173, #34, #193 ) ;
#181 = DIRECTION ( 'NONE',  ( 3.285674118869261421E-15, -0.3382550599108821165, 0.9410544694355824635 ) ) ;
#182 = ORIENTED_EDGE ( 'NONE', *, *, #243, .T. ) ;
#183 = EDGE_CURVE ( 'NONE', #217, #9, #92, .T. ) ;
#184 = DIRECTION ( 'NONE',  ( -2.382254525458715892E-15, -0.7071067811865476838, -0.7071067811865474617 ) ) ;
#185 = CIRCLE ( 'NONE', #84, 1.499999999999998668 ) ;
#186 = AXIS2_PLACEMENT_3D ( 'NONE', #286, #107, #287 ) ;
#187 = ORIENTED_EDGE ( 'NONE', *, *, #2, .F. ) ;
#188 = CARTESIAN_POINT ( 'NONE',  ( 1.461643563874895152E-13, -1.599999999999998979, 42.00000000000000000 ) ) ;
#189 = DIRECTION ( 'NONE',  ( 1.000000000000000000, 0.000000000000000000, -3.491481338843133355E-15 ) ) ;
#190 = ORIENTED_EDGE ( 'NONE', *, *, #11, .T. ) ;
#191 = CLOSED_SHELL ( 'NONE', ( #115, #207, #99, #281, #87, #36, #104, #78 ) ) ;
#192 = DIRECTION ( 'NONE',  ( 3.491481338843133355E-15, -0.000000000000000000, 1.000000000000000000 ) ) ;
#193 = DIRECTION ( 'NONE',  ( 0.000000000000000000, 1.000000000000000000, 0.000000000000000000 ) ) ;
#194 = CARTESIAN_POINT ( 'NONE',  ( 2.449293598294696061E-16, -1.999999999999998224, -2.449293598294712824E-16 ) ) ;
#195 = PRODUCT_DEFINITION ( 'UNKNOWN', '', #204, #82 ) ;
#196 = FACE_OUTER_BOUND ( 'NONE', #228, .T. ) ;
#197 = DIRECTION ( 'NONE',  ( 1.000000000000000000, 0.000000000000000000, -3.469446951953617344E-15 ) ) ;
#198 = VECTOR ( 'NONE', #181, 1000.000000000000114 ) ;
#199 = ORIENTED_EDGE ( 'NONE', *, *, #268, .F. ) ;
#200 = CARTESIAN_POINT ( 'NONE',  ( 2.356749903719115015E-14, 0.000000000000000000, 6.750000000000000000 ) ) ;
#201 = ADVANCED_FACE ( 'NONE', ( #48 ), #238, .F. ) ;
#202 = DIRECTION ( 'NONE',  ( 0.000000000000000000, 1.000000000000000000, 0.000000000000000000 ) ) ;
#203 = CIRCLE ( 'NONE', #57, 1.599999999999993872 ) ;
#204 = PRODUCT_DEFINITION_FORMATION_WITH_SPECIFIED_SOURCE ( 'ANY', '', #272, .NOT_KNOWN. ) ;
#205 =( NAMED_UNIT ( * ) SI_UNIT ( $, .STERADIAN. ) SOLID_ANGLE_UNIT ( ) );
#206 = VERTEX_POINT ( 'NONE', #248 ) ;
#207 = ADVANCED_FACE ( 'NONE', ( #196 ), #123, .T. ) ;
#208 = AXIS2_PLACEMENT_3D ( 'NONE', #111, #302, #59 ) ;
#209 = CARTESIAN_POINT ( 'NONE',  ( 0.000000000000000000, 0.000000000000000000, 0.000000000000000000 ) ) ;
#210 = FACE_OUTER_BOUND ( 'NONE', #95, .T. ) ;
#211 = EDGE_LOOP ( 'NONE', ( #171, #270 ) ) ;
#212 = ORIENTED_EDGE ( 'NONE', *, *, #249, .F. ) ;
#213 = LINE ( 'NONE', #83, #133 ) ;
#214 = ORIENTED_EDGE ( 'NONE', *, *, #128, .T. ) ;
#215 = ORIENTED_EDGE ( 'NONE', *, *, #23, .F. ) ;
#216 = COLOUR_RGB ( '',1.000000000000000000, 1.000000000000000000, 1.000000000000000000 ) ;
#217 = VERTEX_POINT ( 'NONE', #89 ) ;
#218 = PRESENTATION_STYLE_ASSIGNMENT (( #117 ) ) ;
#219 = DIRECTION ( 'NONE',  ( 3.491481338843133355E-15, -0.000000000000000000, 1.000000000000000000 ) ) ;
#220 = AXIS2_PLACEMENT_3D ( 'NONE', #174, #279, #66 ) ;
#221 = ADVANCED_FACE ( 'NONE', ( #64 ), #6, .T. ) ;
#222 = CYLINDRICAL_SURFACE ( 'NONE', #318, 1.999999999999998224 ) ;
#223 = CARTESIAN_POINT ( 'NONE',  ( 2.621021205625283733E-14, 1.499999999999998668, 6.750000000000000000 ) ) ;
#224 = MANIFOLD_SOLID_BREP ( 'Corps-Déplacer/Copier1[1]', #191 ) ;
#225 = DIRECTION ( 'NONE',  ( 1.000000000000000000, 0.000000000000000000, -3.469446951953616161E-15 ) ) ;
#226 = AXIS2_PLACEMENT_3D ( 'NONE', #126, #122, #62 ) ;
#227 = DIRECTION ( 'NONE',  ( -3.491481338843133355E-15, 1.224646799147353454E-16, -1.000000000000000000 ) ) ;
#228 = EDGE_LOOP ( 'NONE', ( #242, #108, #264, #328 ) ) ;
#229 = CYLINDRICAL_SURFACE ( 'NONE', #220, 1.499999999999999112 ) ;
#230 =( NAMED_UNIT ( * ) PLANE_ANGLE_UNIT ( ) SI_UNIT ( $, .RADIAN. ) );
#231 = UNCERTAINTY_MEASURE_WITH_UNIT (LENGTH_MEASURE( 1.000000000000000082E-05 ), #244, 'distance_accuracy_value', 'NONE');
#232 = AXIS2_PLACEMENT_3D ( 'NONE', #27, #24, #52 ) ;
#233 = EDGE_CURVE ( 'NONE', #313, #129, #234, .T. ) ;
#234 = CIRCLE ( 'NONE', #80, 1.499999999999999778 ) ;
#235 = COLOUR_RGB ( '',1.000000000000000000, 1.000000000000000000, 1.000000000000000000 ) ;
#236 = CARTESIAN_POINT ( 'NONE',  ( 4.275831445896956527E-32, 1.499999999999999778, 1.224646799147352653E-17 ) ) ;
#237 = UNCERTAINTY_MEASURE_WITH_UNIT (LENGTH_MEASURE( 1.000000000000000082E-05 ), #22, 'distance_accuracy_value', 'NONE');
#238 = PLANE ( 'NONE',  #67 ) ;
#239 = ORIENTED_EDGE ( 'NONE', *, *, #336, .T. ) ;
#240 = DIRECTION ( 'NONE',  ( 3.491481338843133355E-15, -1.224646799147353454E-16, 1.000000000000000000 ) ) ;
#241 = VERTEX_POINT ( 'NONE', #223 ) ;
#242 = ORIENTED_EDGE ( 'NONE', *, *, #304, .F. ) ;
#243 = EDGE_CURVE ( 'NONE', #324, #251, #112, .T. ) ;
#244 =( LENGTH_UNIT ( ) NAMED_UNIT ( * ) SI_UNIT ( .MILLI., .METRE. ) );
#245 = AXIS2_PLACEMENT_3D ( 'NONE', #55, #320, #147 ) ;
#246 = MECHANICAL_DESIGN_GEOMETRIC_PRESENTATION_REPRESENTATION (  '', ( #61 ), #301 ) ;
#247 = SURFACE_STYLE_FILL_AREA ( #32 ) ;
#248 = CARTESIAN_POINT ( 'NONE',  ( 2.842429869561295464E-14, 1.999999999999995337, 8.141042708545896289 ) ) ;
#249 = EDGE_CURVE ( 'NONE', #241, #206, #306, .T. ) ;
#250 = DIRECTION ( 'NONE',  ( 3.491481338843133355E-15, -1.224646799147353454E-16, 1.000000000000000000 ) ) ;
#251 = VERTEX_POINT ( 'NONE', #255 ) ;
#252 = DIRECTION ( 'NONE',  ( 0.000000000000000000, 1.000000000000000000, 0.000000000000000000 ) ) ;
#253 = SURFACE_STYLE_FILL_AREA ( #146 ) ;
#254 = AXIS2_PLACEMENT_3D ( 'NONE', #140, #240, #292 ) ;
#255 = CARTESIAN_POINT ( 'NONE',  ( 1.500000000000022427, 0.000000000000000000, 6.749999999999994671 ) ) ;
#256 = DIRECTION ( 'NONE',  ( -3.491481338843133355E-15, 1.224646799147353454E-16, -1.000000000000000000 ) ) ;
#257 = CARTESIAN_POINT ( 'NONE',  ( 2.356749903719115015E-14, 1.499999999999998668, 6.750000000000000000 ) ) ;
#258 = LINE ( 'NONE', #262, #315 ) ;
#259 = ORIENTED_EDGE ( 'NONE', *, *, #314, .T. ) ;
#260 = VERTEX_POINT ( 'NONE', #154 ) ;
#261 = EDGE_CURVE ( 'NONE', #217, #260, #258, .T. ) ;
#262 = CARTESIAN_POINT ( 'NONE',  ( 1.452456236958743476E-13, 1.999999999999993117, 41.60000000000000142 ) ) ;
#263 = ORIENTED_EDGE ( 'NONE', *, *, #243, .F. ) ;
#264 = ORIENTED_EDGE ( 'NONE', *, *, #134, .T. ) ;
#265 = AXIS2_PLACEMENT_3D ( 'NONE', #277, #250, #150 ) ;
#266 = ORIENTED_EDGE ( 'NONE', *, *, #141, .F. ) ;
#267 =( NAMED_UNIT ( * ) PLANE_ANGLE_UNIT ( ) SI_UNIT ( $, .RADIAN. ) );
#268 = EDGE_CURVE ( 'NONE', #313, #324, #18, .T. ) ;
#269 = FACE_OUTER_BOUND ( 'NONE', #26, .T. ) ;
#270 = ORIENTED_EDGE ( 'NONE', *, *, #304, .T. ) ;
#271 = APPLICATION_CONTEXT ( 'automotive_design' ) ;
#272 = PRODUCT ( '56999', '56999', '', ( #35 ) ) ;
#273 = ORIENTED_EDGE ( 'NONE', *, *, #183, .F. ) ;
#274 = FILL_AREA_STYLE_COLOUR ( '', #216 ) ;
#275 = CONICAL_SURFACE ( 'NONE', #180, 1.999999999999998224, 0.7853981633974485010 ) ;
#276 = APPLICATION_PROTOCOL_DEFINITION ( 'draft international standard', 'automotive_design', 1998, #271 ) ;
#277 = CARTESIAN_POINT ( 'NONE',  ( 2.356749903719115015E-14, -8.266365894244636305E-16, 6.750000000000000000 ) ) ;
#278 = DIRECTION ( 'NONE',  ( -3.491481338843133355E-15, 1.224646799147371450E-16, -1.000000000000000000 ) ) ;
#279 = DIRECTION ( 'NONE',  ( 3.491481338843133355E-15, -0.000000000000000000, 1.000000000000000000 ) ) ;
#280 = CLOSED_SHELL ( 'NONE', ( #298, #221, #201, #310 ) ) ;
#281 = ADVANCED_FACE ( 'NONE', ( #44 ), #65, .T. ) ;
#282 = AXIS2_PLACEMENT_3D ( 'NONE', #39, #256, #339 ) ;
#283 = DIRECTION ( 'NONE',  ( 3.327098416510787610E-15, 0.3382550599108819500, 0.9410544694355824635 ) ) ;
#284 = ORIENTED_EDGE ( 'NONE', *, *, #141, .T. ) ;
#285 = PRESENTATION_LAYER_ASSIGNMENT (  '', '', ( #176 ) ) ;
#286 = CARTESIAN_POINT ( 'NONE',  ( 1.466422162314116009E-13, -5.143516556418884900E-15, 42.00000000000000000 ) ) ;
#287 = DIRECTION ( 'NONE',  ( 0.000000000000000000, -1.000000000000000000, 0.000000000000000000 ) ) ;
#288 = ORIENTED_EDGE ( 'NONE', *, *, #331, .F. ) ;
#289 = AXIS2_PLACEMENT_3D ( 'NONE', #110, #81, #86 ) ;
#290 = ORIENTED_EDGE ( 'NONE', *, *, #233, .F. ) ;
#291 = CIRCLE ( 'NONE', #33, 1.499999999999999778 ) ;
#292 = DIRECTION ( 'NONE',  ( 0.000000000000000000, -1.000000000000000000, 0.000000000000000000 ) ) ;
#293 = CARTESIAN_POINT ( 'NONE',  ( 2.356749903719115015E-14, 0.000000000000000000, 6.750000000000000000 ) ) ;
#294 = FACE_OUTER_BOUND ( 'NONE', #42, .T. ) ;
#295 = CARTESIAN_POINT ( 'NONE',  ( 1.466422162314116009E-13, -5.143516556418884900E-15, 42.00000000000000000 ) ) ;
#296 = VERTEX_POINT ( 'NONE', #46 ) ;
#297 = AXIS2_PLACEMENT_3D ( 'NONE', #63, #278, #114 ) ;
#298 = ADVANCED_FACE ( 'NONE', ( #69 ), #229, .T. ) ;
#299 = DIRECTION ( 'NONE',  ( 1.000000000000000000, 0.000000000000000000, -3.469446951953617344E-15 ) ) ;
#300 = COLOUR_RGB ( '',1.000000000000000000, 1.000000000000000000, 1.000000000000000000 ) ;
#301 =( GEOMETRIC_REPRESENTATION_CONTEXT ( 3 ) GLOBAL_UNCERTAINTY_ASSIGNED_CONTEXT ( ( #337 ) ) GLOBAL_UNIT_ASSIGNED_CONTEXT ( ( #77, #177, #70 ) ) REPRESENTATION_CONTEXT ( 'NONE', 'WORKASPACE' ) );
#302 = DIRECTION ( 'NONE',  ( 0.000000000000000000, 0.000000000000000000, 1.000000000000000000 ) ) ;
#303 = DIRECTION ( 'NONE',  ( -3.491481338843133355E-15, 0.000000000000000000, -1.000000000000000000 ) ) ;
#304 = EDGE_CURVE ( 'NONE', #241, #145, #7, .T. ) ;
#305 = VECTOR ( 'NONE', #131, 1000.000000000000000 ) ;
#306 = LINE ( 'NONE', #68, #138 ) ;
#307 = ORIENTED_EDGE ( 'NONE', *, *, #169, .T. ) ;
#308 = CARTESIAN_POINT ( 'NONE',  ( 8.551662891793910207E-31, 1.999999999999998224, 2.449293598294704935E-16 ) ) ;
#309 = DIRECTION ( 'NONE',  ( -3.491481338843133355E-15, 1.224646799147353454E-16, -1.000000000000000000 ) ) ;
#310 = ADVANCED_FACE ( 'NONE', ( #210 ), #317, .F. ) ;
#311 = CARTESIAN_POINT ( 'NONE',  ( 2.356749903719115015E-14, -1.500000000000000444, 6.750000000000000000 ) ) ;
#312 = DIRECTION ( 'NONE',  ( -3.491481338843133355E-15, 1.224646799147353454E-16, -1.000000000000000000 ) ) ;
#313 = VERTEX_POINT ( 'NONE', #159 ) ;
#314 = EDGE_CURVE ( 'NONE', #9, #217, #203, .T. ) ;
#315 = VECTOR ( 'NONE', #130, 1000.000000000000000 ) ;
#316 = ORIENTED_EDGE ( 'NONE', *, *, #103, .F. ) ;
#317 = PLANE ( 'NONE',  #162 ) ;
#318 = AXIS2_PLACEMENT_3D ( 'NONE', #119, #312, #136 ) ;
#319 = ORIENTED_EDGE ( 'NONE', *, *, #11, .F. ) ;
#320 = DIRECTION ( 'NONE',  ( -3.491481338843133355E-15, 1.224646799147353454E-16, -1.000000000000000000 ) ) ;
#321 = PLANE ( 'NONE',  #226 ) ;
#322 = DIRECTION ( 'NONE',  ( -3.491481338843133355E-15, 1.224646799147371450E-16, -1.000000000000000000 ) ) ;
#323 = FACE_OUTER_BOUND ( 'NONE', #161, .T. ) ;
#324 = VERTEX_POINT ( 'NONE', #329 ) ;
#325 = AXIS2_PLACEMENT_3D ( 'NONE', #25, #322, #1 ) ;
#326 = ORIENTED_EDGE ( 'NONE', *, *, #261, .T. ) ;
#327 = DIRECTION ( 'NONE',  ( -3.491481338843133355E-15, 1.224646799147353454E-16, -1.000000000000000000 ) ) ;
#328 = ORIENTED_EDGE ( 'NONE', *, *, #169, .F. ) ;
#329 = CARTESIAN_POINT ( 'NONE',  ( -1.499999999999975131, 1.836970198721028701E-16, 6.750000000000005329 ) ) ;
#330 = AXIS2_PLACEMENT_3D ( 'NONE', #37, #13, #225 ) ;
#331 = EDGE_CURVE ( 'NONE', #296, #51, #142, .T. ) ;
#332 = ORIENTED_EDGE ( 'NONE', *, *, #314, .F. ) ;
#333 = ORIENTED_EDGE ( 'NONE', *, *, #128, .F. ) ;
#334 = CARTESIAN_POINT ( 'NONE',  ( 2.842429869561295464E-14, -9.969901894742632755E-16, 8.141042708545896289 ) ) ;
#335 = ORIENTED_EDGE ( 'NONE', *, *, #183, .T. ) ;
#336 = EDGE_CURVE ( 'NONE', #296, #260, #50, .T. ) ;
#337 = UNCERTAINTY_MEASURE_WITH_UNIT (LENGTH_MEASURE( 1.000000000000000082E-05 ), #77, 'distance_accuracy_value', 'NONE');
#338 = CONICAL_SURFACE ( 'NONE', #325, 1.999999999999998224, 0.7853981633974485010 ) ;
#339 = DIRECTION ( 'NONE',  ( 0.000000000000000000, 1.000000000000000000, 0.000000000000000000 ) ) ;
#340 = EDGE_CURVE ( 'NONE', #129, #251, #213, .T. ) ;
#341 = ORIENTED_EDGE ( 'NONE', *, *, #261, .F. ) ;
#342 = PRESENTATION_STYLE_ASSIGNMENT (( #28 ) ) ;
#343 = SHAPE_DEFINITION_REPRESENTATION ( #166, #178 ) ;
ENDSEC;
END-ISO-10303-21;
